Song name
# A B C D E F G H I J K L M N O P Q R S T U V W X Y Z

Pierce The Veil - Currents Convulsive tab

go down for guitar 2

=============================================================================

guitar 1
e|------------------------------------------|
B|------------------------------------------|
G|------------------------------------------|
D|------------------------------------------|X2
A|-9p8p6p0-9p8p6p0-8p7p5p0-8p7p5p0-8p7p5p0--|
E|------------------------------------------|

e|------------------------------------------|
B|------------------------------------------|
G|------------------------------------------|
D|------------------------------------------|X2
A|-8p7p5p0-8p7p5p0-9p8p6p0-9p8p6p0-9p8p6p0--|
E|------------------------------------------|

e|------------------------------------------|
B|------------------------------------------|
G|------------------------------------------|
D|------------------------------------------|X2
A|-9p8p6p0-9p8p6p0-8p7p5p0-8p7p5p0-8p7p5p0--|
E|------------------------------------------|

e|------------------------------------------|
B|------------------------------------------|
G|------------------------------------------|
D|------------------------------------------|X2
A|-8p7p5p0-8p7p5p0-9p8p6p0-9p8p6p0-9p8p6p0--|
E|------------------------------------------|

e|------------------------------------------|
B|------------------------------------------|
G|------------------------------------------|
D|-10p9p7p0-10p9p7p0-11p10p8p0-11p10p8p0----|
A|------------------------------------------|
E|------------------------------------------|

=============================================================================

guitar 2 
e|---------------------|
B|---------------------|
G|--9---10--7----------|
D|--7------------------|
A|---------------------|
E|---------------------|

e|-------------------------------------|
B|-------------------------------------|
G|-12/14-14--12-12--13-13-13-13--------|
D|-10/12-12--10-10--11-11-11-11--------|X2
A|-------------------------------------|
E|-------------------------------------|

not sure how many times this part is strummed..
e|-1-----------------------------------|
B|-0-----------------------------------|
G|-------------------------------------|
D|-------------------------------------|
A|-------------------------------------|
E|-------------------------------------|
Tap to rate this tab
 
# A B C D E F G H I J K L M N O P Q R S T U V W X Y Z