Pierce The Veil - Chemical Kids And Mechanical Brides tab

guitar 1
 this part is palm muted..and just keep doing that until he sing "told you why I 
need no need for the sun"
e|-8--8-8--8-8-8-------------------|
B|-10-1010-101010------------------|
G|---------------------------------|
D|---------------------------------|
A|---------------------------------|
E|---------------------------------|

guitar 2
e|---------------5-----------------|
B|-------6-------------------------|
G|----8----------------------------|
D|--8------------------------------|
A|---------------------------------|
E|---------------------------------|

guitar 2
i couldn't really get this part but something like this i guess
e|---------------------------------|
B|---------------------------------|
G|---10p8-7h8p7-7-8-7--------------|
D|-8-------------------------------|
A|---------------------------------|
E|---------------------------------|
Tap to rate this tab
 
# A B C D E F G H I J K L M N O P Q R S T U V W X Y Z