Song name
# A B C D E F G H I J K L M N O P Q R S T U V W X Y Z

Pierce The Veil - The Balcony Scene tab

-------------------------------------------------------------------------------
		   The Balcony Scene - Pierce the Veil
-------------------------------------------------------------------------------
Tabbed by: BlesstheHorizon
Email: redtears@live.ca
Tuning: Standard

For a while now I've been trying to find the solo for this song so I decided to
tab it myself.
There are basically two solos in this song and I did the best I could to tab it
out, especially the first.
I hope that this will help you as it helped me.
*******************
                  *
| /   slide up    *
| \   slide down  *
| h   hammer-on   *
| ~   vibrato     *
| *   let it ring *
                  *
*******************

  Solo 1:
e|---------------------------------------------------------------------------|
B|--3/5*-------------------------------6/88----------------------------------|
G|-------55-h7/9\7-5---5-7---5---5-7/9------7-7/99------7------7-------------|
D|-------------------7-----7---7-------------------7-10---7-10---6/7~--5~----|
A|---------------------------------------------------------------------------|
E|---------------------------------------------------------------------------|


e|---------------------------------------------------------------------------|
B|---------------------------------------------------------------------------|
G|---------------------------------------------------------------------------|
D|---------------------------------------------------------------------------|
A|-7-5-----------------------------------------------------------------------|
E|-----8-5-------------------------------------------------------------------|

  Solo 2:
e|-1-1------111--1------1------1------1------1------1------------------------|
B|-----02h-----0---02h----02h----02h----02h----02h----02h----1-33-55-66-88---|
G|---------------------------------------------------------------------------|
D|---------------------------------------------------------------------------|
A|---------------------------------------------------------------------------|
E|---------------------------------------------------------------------------|

e|------77-88-1010-1212-15-12-15-15/17\15\17/15\17~--------------------------|
B|-1010----------------------------------------------------------------------|
G|---------------------------------------------------------------------------|
D|---------------------------------------------------------------------------|
A|---------------------------------------------------------------------------|
E|---------------------------------------------------------------------------|
Tap to rate this tab
 
# A B C D E F G H I J K L M N O P Q R S T U V W X Y Z