Pierce The Veil - The New National Anthem tab

-Pierce The Veil
-The New National Anthem
-Guitar Cover
-Standard Tuning

This tab was made by ear, and sound 100% correct, as there is proper tab for this song I 
6 hours to get it sorted, so I hope you think it's good! :)

Intro

|-------8-10-11-10-8-------------------6-8-6------------------|
|-----8--------------8-9/11----------6-------9-8-9-8-6--------|
|----------------------------------8-------------------8-7----|
|--10---------------------------------------------------------|
|-------------------------------------------------------------|
|-------------------------------------------------------------|

|-------8-10-11-10-8---13/15--|
|-----8--------------8--------|
|-----------------------------|
|--10-------------------------|
|-----------------------------|
|-----------------------------|

|--6-----6------3------10------------8-----------------|
|--6-------6----3---------8----------8-----------------|
|--7------------4--------------------8-----------------|
|------------------------------------10----------------|
|------------------------------------------------------|
|------------------------------------------------------|

Verse ''Drag My Hand Behind You''

|--8--8--8---------8--8--8----------------------------------------|
|--8--8--8---------9--9--9-----------6-6-6-----------8--8--8------|
|--8--8--8---------8--8--8-----------7-7-7-----------7--7--9------|
|--10-10-10--------10-10-10----------8-8-8-----------9--9--9------|
|----------------------------------------------------10-10-10-----|
|-----------------------------------------------------------------|

|--8--8--8---------8--8--8----------------------------------------|
|--8--8--8---------9--9--9-----------6-6-6-----------8--8--8------|
|--8--8--8---------8--8--8-----------7-7-7-----------7--7--9------|
|--10-10-10--------10-10-10----------8-8-8-----------9--9--9------|
|----------------------------------------------------10-10-10-----|
|-----------------------------------------------------------------|

Pre Chorus ''Somebody's Suppose To Fall In Love''

|--15---15-15---13---13-15-15---15-15-|
|-------------------------------------|
|-------------------------------------|
|-------------------------------------|
|-------------------------------------|
|-------------------------------------|

|--13---13-15-15---15-15---11---11-15-15---11-15-13-|
|---------------------------------------------------|
|---------------------------------------------------|
|---------------------------------------------------|
|---------------------------------------------------|
|---------------------------------------------------|

|--13-15-15---13-15-13---13---13--|
|---------------------------------|
|---------------------------------|
|---------------------------------|
|---------------------------------|
|---------------------------------|

Chorus ''Tear this place apart!''

|---------------------------------------------------------------------|
|---------------------------------------------------------------------|
|--8-8-10-10-12-12-15-15-19-19-17-17-15-15-12-12-15-15-13-13-12-12-10-|
|---------------------------------------------------------------------|
|--6---8-----10----13----17----15----13----10----13----11----10----8--|
|---------------------------------------------------------------------|

|-----------------------------------------|
|-----------------------------------------|
|--10-19-19-17-17-15-15-12-12-15-15-13-13-|
|-----------------------------------------|
|-----17----15----13----10----13----11----|
|-----------------------------------------|

|------------------------------------------------|
|------------------------------------------------|
|12-12-10-12-12-19-19-17-17-15-15-12-12-15-15----|
|------------------------------------------------|
|10----8--10----17----15----13----10----13-------|
|------------------------------------------------|

|------------------------------------------------------------------------|
|------------------------------------------------------------------------|
|13-13-12-12-10-10-19-19-17-17-15-15-12-12-15--15-13-13-12-12-10-10-13---|
|------------------------------------------------------------------------|
|11----10----8-----17----15----13----10----13-----11----10----8-----11---|
|------------------------------------------------------------------------|

Verse '' Summer Is Gold! ''

|------------------------------------------|
|------------------------------------------|
|--4-5-4-5-4-5-4-5-4-5-4-5-4-5-4-5-5-8-7-3-|
|------------------------------------------|
|--2-3-2-3-2-3-2-3-2-3-2-3-2-3-2-3-3-6-5-1-|
|------------------------------------------|

|------------------------------------------|
|------------------------------------------|
|--4-5-4-5-4-5-4-5-4-5-4-5-4-5-4-5-5-8-7-3-|
|------------------------------------------|
|--2-3-2-3-2-3-2-3-2-3-2-3-2-3-2-3-3-6-5-1-|
|------------------------------------------|

|------------------------------------------|
|------------------------------------------|
|--4-5-4-5-4-5-4-5-4-5-4-5-4-5-4-5-4-5-4-5-|
|------------------------------------------|
|--2-3-2-3-2-3-2-3-2-3-2-3-2-3-2-3-2-3-2-3-|
|------------------------------------------|

|------------------------------------------|
|------------------------------------------|
|--4-5-4-5-4-5-4-5-4-5-4-5-3-4-3-4-3-4-3-4-|
|------------------------------------------|
|--2-3-2-3-2-3-2-3-2-3-2-3-1-2-1-2-1-2-1-2-|
|------------------------------------------|

''Never Means Forever''

|------------------------------------------|
|------------------------------------------|
|--5----3----5----3----3----3----3----3----|
|--5----3----5----3----3----3----3----3----|
|--3----1----3----1----1----1----1----1----|
|------------------------------------------|

''Somebody supposed to fall in love ''

|-----18-16-15-16-15----------------15----18-16-15-16-15----------------15----|
|--16----------------18-16-15-16-18----16----------------18-16-15-16-18----16-|
|-----------------------------------------------------------------------------|
|-----------------------------------------------------------------------------|
|-----------------------------------------------------------------------------|
|-----------------------------------------------------------------------------|

|-----18-16-15-16-15----------------15----|
|--16----------------18-16-15-16-18----16-|
|-----------------------------------------|
|-----------------------------------------|
|-----------------------------------------|
|-----------------------------------------|

Chorus ''Tear This Place Apart!''

|---------------------------------------------------------------------|
|---------------------------------------------------------------------|
|--8-8-10-10-12-12-15-15-19-19-17-17-15-15-12-12-15-15-13-13-12-12-10-|
|---------------------------------------------------------------------|
|--6---8-----10----13----17----15----13----10----13----11----10----8--|
|---------------------------------------------------------------------|

|-----------------------------------------|
|-----------------------------------------|
|--10-19-19-17-17-15-15-12-12-15-15-13-13-|
|-----------------------------------------|
|-----17----15----13----10----13----11----|
|-----------------------------------------|

|------------------------------------------------|
|------------------------------------------------|
|12-12-10-12-12-19-19-17-17-15-15-12-12-15-15----|
|------------------------------------------------|
|10----8--10----17----15----13----10----13-------|
|------------------------------------------------|

|------------------------------------------------------------------------|
|------------------------------------------------------------------------|
|13-13-12-12-10-10-19-19-17-17-15-15-12-12-15--15-13-13-12-12-10-10-13---|
|------------------------------------------------------------------------|
|11----10----8-----17----15----13----10----13-----11----10----8-----11---|
|------------------------------------------------------------------------|

Feedback part after chorus

|---------------------------|
|---------------------------|
|---------------------------|
|--6~----------2~-----------|
|---------------------------|
|---------------------------|

''Raaahhhhh!!!''
|--------------------|
|--------------------|
|--------------------|
|--------------------|
|--------------------|
|--8-11-10-8-10-8----|

Piano part

''Why would I let you go?'' - All of the following are tremelo picked as heard in the song.

|--------------------------------------------------------|
|---------------------------------------------------20---|
|--12--------12-------17--------19--------22-------------|
|---------------------------------------------------17---|
|--10--------10-------15--------17--------20-------------|
|--------------------------------------------------------|

Chorus ''Tear This Place Apart'' - Notes are played slower

|---------------------------------------------------------------------|
|---------------------------------------------------------------------|
|--8-8-10-10-12-12-15-15-19-19-17-17-15-15-12-12-15-15-13-13-12-12-10-|
|---------------------------------------------------------------------|
|--6---8-----10----13----17----15----13----10----13----11----10----8--|
|---------------------------------------------------------------------|

|-----------------------------------------|
|-----------------------------------------|
|--10-19-19-17-17-15-15-12-12-15-15-13-13-|
|-----------------------------------------|
|-----17----15----13----10----13----11----|
|-----------------------------------------|

|------------------------------------------------|
|------------------------------------------------|
|12-12-10-12-12-19-19-17-17-15-15-12-12-15-15----|
|------------------------------------------------|
|10----8--10----17----15----13----10----13-------|
|------------------------------------------------|

|------------------------------------------------------------------------|
|------------------------------------------------------------------------|
|13-13-12-12-10-10-19-19-17-17-15-15-12-12-15--15-13-13-12-12-10-10-13---|
|------------------------------------------------------------------------|
|11----10----8-----17----15----13----10----13-----11----10----8-----11---|
|------------------------------------------------------------------------|

This tab took me a over 6 hours and was very hard to do, but hopefully I did a good job!

Please rate and comment thankyou! Hope this helps guys!
Tap to rate this tab
 
# A B C D E F G H I J K L M N O P Q R S T U V W X Y Z