Song name
# A B C D E F G H I J K L M N O P Q R S T U V W X Y Z

Pierce The Veil - The Boy Who Could Fly tab

Artist: Pierce the Veil
Song: The Boy Who Could Fly
Album: Selfish Machines
Tuning: Standard

Intro
E|--------------------------------||
B|--------------------------------||
G|-9-----9--9---16--16---14--14---||
D|-x-----x--x----x---x----x---x---||
A|-7-777-7--7---14--14---12--12---||
E|--------------------------------||
     ...

Verse
E|------------------------------------||
B|------------------------------------||
G|-16--------16--16--16--17--16--14---||
D|--x---------x---x---x---x---x---x---||
A|-14-141414-14--14--14--15--14--12---||
E|------------------------------------||
       . . .

E|------------------------------------||
B|------------------------------------||
G|-16--------16--16--19--17--16--14---||
D|--x---------x---x---x---x---x---x---||
A|-14-141414-14--14--17--15--14--12---||
E|------------------------------------||
       . . .

E|-----------------------------------||
B|-----------------------------------||
G|-12--------12--12--11--8--11--14---||
D|--x---------x---x---x--x---x---x---||
A|-10-101010-10--10---9--6---9--12---||
E|-----------------------------------||
       . . .

E|--------------------------------------||
B|--------------------------------------||
G|-12--------12--12---16--16---14--14---|| Repeat
D|--x---------x---x----x---x----x---x---|| (But instead of this
A|-10-101010-10--10---14--14---12--12---||  section play next part
E|--------------------------------------||  on 2nd ending)
         ..........

2nd Time Through:
E|-------------||
B|----12--13---||
G|-9--10--11---||
D|-------------||
A|-------------||
E|-------------||

E|-------------------------------------------||
B|-12---12---10---10---13---13---12---12-----||
G|----9----9----9----9----9----9----9----9---||
D|-------------------------------------------|| 4X
A|-------------------------------------------||
E|-------------------------------------------||

E|-0-5h7-0-5h7-0-5h7-0-5h7-0-5h7-0-8h10-0-8h10-0-8h10-0-8h10-0-8h10---||
B|--------------------------------------------------------------------||
G|--------------------------------------------------------------------||
D|--------------------------------------------------------------------||
A|--------------------------------------------------------------------||
E|--------------------------------------------------------------------||

E|-0-10h12-0-10h12-0-10h12-0-10h12-0-10h12------------------||
B|------------------------------------------8---7---5---4---||
G|----------------------------------------------------------||
D|----------------------------------------------------------||
A|----------------------------------------------------------||
E|----------------------------------------------------------||

Chorus(2 Times)
E|-t6-0h3-t6-0h3-t6-0h3-t6-0h3-t6-0h3-t6-0h3-t6-0h3-t6-0h3---||
B|-----------------------------------------------------------||
G|-----------------------------------------------------------||
D|-----------------------------------------------------------||
A|-----------------------------------------------------------||
E|-----------------------------------------------------------||

E|-------------------------------------------------------------------||
B|-t7-0h10-t7-0h10-t7-0h10-t7-0h10-t7-0h10-t7-0h10-t7-0h10-t7-0h10---||
G|-------------------------------------------------------------------||
D|-------------------------------------------------------------------||
A|-------------------------------------------------------------------||
E|-------------------------------------------------------------------||

E|-----------------------------------------------------------||
B|-t5-0h8-t5-0h8-t5-0h8-t5-0h8-t5-0h8-t5-0h8-t5-0h8-t5-0h8---||
G|-----------------------------------------------------------||
D|-----------------------------------------------------------||
A|-----------------------------------------------------------||
E|-----------------------------------------------------------||

E|-----------------------------------------------------------||
B|-t4-0h7-t4-0h7-t4-0h7-t4-0h7-t4-0h7-t4-0h7-t4-0h7-t4-0h7---||
G|-----------------------------------------------------------||
D|-----------------------------------------------------------||
A|-----------------------------------------------------------||
E|-----------------------------------------------------------||

Haven't quite figure out the part between this Chorus and the Verse yet.
Working on it.
But, after that riff it continues into this:

Verse 2:
E|----------------------||
B|----------------------||
G|----------------------||
D|-14~--13~--14~--14~---|| 2X
A|----------------------||
E|----------------------||

E|--------------------------------||
B|--------------------------------||
G|-------------9\----8------------||
D|-7\----7\----9\----9----10--9---||
A|-7\----7\----7\----6-----x--x---||
E|-5\----5\----------------8--7---||

E|----------------------------||
B|----------------------------||
G|-------------9\----8----8---||
D|-7\----7\----9\----9----x---||
A|-7\----7\----7\----6----6---||
E|-5\----5\-------------------||

Chorus Again
Then

E|----------------||
B|----------------||
G|-----------1~---||
D|-3---------2~---|| After this it's a lot of static and effects
A|-3---------2~---|| leading into next part.
E|-1---------0~---||

E|------------------------------------------------------------------------||
B|------------------------------------------------------------------------||
G|-9---9---9---9---9---9---11---11---8---8---8---8---9---11---11---11-----||
D|---9---9---9---9---9---9----9----9---9---9---9---9---9----9----9----9---||
A|------------------------------------------------------------------------||
E|------------------------------------------------------------------------||

E|-------------------------------------------------------------------------||
B|-------------------------------------------------------------------------||
G|-9---9---9---9---11---11---12---12---8---8---8---8---11---11---11---11---||
D|---9---9---9---9----9----9----9----9---9---9---9---9----9----9----9----9-||
A|-------------------------------------------------------------------------||
E|-------------------------------------------------------------------------||

Then pretty much the same as above except turn them into pairs:
E|-------------------||
B|-------------------||
G|-8---9---11---12---|| You figure out order and rhythm.
D|-9---9----9----9---|| It's not very hard to do.
A|-------------------||
E|-------------------||

E|----------------------------------------------||
B|----------------------------------------------||
G|----------------------------------------------||
D|-2-2-2---2-2-2---2-2----2-2-2---2-2-2---2-2---||
A|-2-2-2---2-2-2---2-2----2-2-2---2-2-2---2-2---||
E|-0-0-0---0-0-0---0-0----0-0-0---0-0-0---0-0---||
   . . .   . . .   . .    . . .   . . .   . .

E|----------------------------------------------||
B|----------------------------------------------||
G|----------------------------------------------||
D|-2-2-2---2-2-2----------2-2-2---2-2-2---2-2---||
A|-2-2-2---2-2-2----------2-2-2---2-2-2---2-2---||
E|-0-0-0---0-0-0----------0-0-0---0-0-0---0-0---||
   . . .   . . .          . . .   . . .   . .

E|----------------------------------------------||
B|----------------------------------------------||
G|------------------------8-8-8---8-8-8---8-8---||
D|-2-2-2---2-2-2----------9-9-9---9-9-9---9-9---||
A|-2-2-2---2-2-2----------6-6-6---6-6-6---6-6---||
E|-0-0-0---0-0-0--------------------------------||
   . . .   . . .          . . .   . . .   . .

E|----------------------------------------||
B|----------------------------------------||
G|----------------------------------------||
D|-2-2-2---2-2-2---2-2----2-2-2---2-2-2---||
A|-2-2-2---2-2-2---2-2----2-2-2---2-2-2---||
E|-0-0-0---0-0-0---0-0----0-0-0---0-0-0---||
   . . .   . . .   . .    . . .   . . .

Not quite sure on next riff yet.

Back to Chorus Riff Again

End song on:
E|--------------------------||
B|-------------------[12]---||
G|-------------------[12]---||
D|-3-3-3----3-3-3-----------||
A|-3-3-3----3-3-3-----------||
E|-1-1-1----1-1-1-----------||
   . .      . .

Enjoy for now!
And buy their new album "Selfish Machines" if you haven't already.
Tap to rate this tab
 
# A B C D E F G H I J K L M N O P Q R S T U V W X Y Z