Pierce The Veil - Besitos tab

-------------------------------------------------------------------------------
			     Besitos - Pierce the Veil
-------------------------------------------------------------------------------
Tabbed by: Jarrett

Tuning: Dropped-B (BGbBEAbDb)

Intro (4 times)
Db|-0000h800h12-0000h800h12-0000h800h12-0000h800h12---||
Ab|---------------------------------------------------||
E |---------------------------------------------------||
B |---------------------------------------------------||
Gb|---------------------------------------------------||
B |---------------------------------------------------||

Db|-0000h700h10-0000h700h10-0000h700h10-0000h700h10---||
Ab|---------------------------------------------------||
E |---------------------------------------------------||
B |---------------------------------------------------||
Gb|---------------------------------------------------||
B |---------------------------------------------------||

Verse:

Db|-------------------------------------------------------------------||
Ab|-------------------------------------------------------------------||
E |-------------------------------------------------------------------||
B |-------------------------------------------------------------------||
Gb|-3-3-3-------------3-3-3---------2-2-2-------------2-2-2-----------||
B |-------7-7-7-2-2-2-------7-2-7-2-------6-6-6-2-2-2-------6-2-6-2---||

Chorus Rhythm (2 Times)
Db|---------------------------------------------------||
Ab|---------------------------------------------------||
E |---------------------------------------------------||
B |-7---7-5-3---3-2-0-0-0-0-0-0-0-0-2-2-2-2-2-2-2-2---||
Gb|-7---7-5-3---3-2-0-0-0-0-0-0-0-0-2-2-2-2-2-2-2-2---||
B |-7---7-5-3---3-2-0-0-0-0-0-0-0-0-2-2-2-2-2-2-2-2---||

Intro Riff Again

Verse 2 is Lead plays Intro Riff
Rhythm plays Verse riff palm-muted.

Chorus Again

Will have rest later.
Tap to rate this tab
 
# A B C D E F G H I J K L M N O P Q R S T U V W X Y Z