Pierce The Veil - Disasterology tab

Artist: Pierce the Veil
Song: Disasterology
Tuning: Dropped D

Lead:
e|-------19----18------------|
B|-------------------21-19---|
G|-16-18----18----18---------|
D|---------------------------| Repeat Several Times
A|---------------------------|
E|---------------------------|

Rhythm
e|-------------------------------------------------------------------|
B|-------------------------------------------------------------------|
G|-9-9-9-9-9-9-9-9-9-9-9-9-9-9-9-9-----------------------------------|
D|-9-9-9-9-9-9-9-9-9-9-9-9-9-9-9-9-6-6-6-6-6-6-6-6-6-6-6-6-6-6-6-6---|
A|-7-7-7-7-7-7-7-7-7-7-7-7-7-7-7-7-6-6-6-6-6-6-6-6-6-6-6-6-6-6-6-6---|
E|---------------------------------6-6-6-6-6-6-6-6-6-6-6-6-6-6-6-6---|

Verse:
Following chords, figure out rhythm, not hard.
e|--------------|
B|--------------|
G|----------9---|
D|-6--------9---|
A|-6--------7---|
D|-6------------|

End on 6th fret power chord.

Chorus:

Lead

e|-------19----18------------|
B|-------------------21-19---|
G|-16-18----18----18---------|
D|---------------------------| Repeat Several Times
A|---------------------------|
E|---------------------------|

Rhythm
e|-------------------------------------------------------------------|
B|-------------------------------------------------------------------|
G|-------------------------------------------------------------------|
D|-2-2-2-2-2-2-2-2-2-2-2-2-2-2-2-2-6-6-6-6-6-6-6-6-6-6-6-6-6-6-6-6---| 2x
A|-2-2-2-2-2-2-2-2-2-2-2-2-2-2-2-2-6-6-6-6-6-6-6-6-6-6-6-6-6-6-6-6---|
E|-2-2-2-2-2-2-2-2-2-2-2-2-2-2-2-2-6-6-6-6-6-6-6-6-6-6-6-6-6-6-6-6---|

Verse 2: (Palm-Muted)

e|-------------------------------------------------------------------|
B|-------------------------------------------------------------------|
G|-------------------------------------------------------------------|
D|-6-6-6-6-6-6-6-6-6-6-6-6-6-6-6-6-6-6-6-6-6-6-6-6-2-2-2-2-2-2-2-2---|
A|-6-6-6-6-6-6-6-6-6-6-6-6-6-6-6-6-6-6-6-6-6-6-6-6-2-2-2-2-2-2-2-2---|
E|-6-6-6-6-6-6-6-6-6-6-6-6-6-6-6-6-6-6-6-6-6-6-6-6-2-2-2-2-2-2-2-2---|

e|-------------------------------------------------------------------|
B|-------------------------------------------------------------------|
G|-9-9-9-9-9-9-9-9-9-9-9-9-9-9-9-9-9-9-9-9-9-9-9-9-8-8-8-8-8-8-8-8---| 2x
D|-9-9-9-9-9-9-9-9-9-9-9-9-9-9-9-9-9-9-9-9-9-9-9-9-8-8-8-8-8-8-8-8---|
A|-7-7-7-7-7-7-7-7-7-7-7-7-7-7-7-7-7-7-7-7-7-7-7-7-6-6-6-6-6-6-6-6---|
E|-------------------------------------------------------------------|

End on 6th fret power chord again.
Repeat Chorus

Don't have bridge yet.

After bridge it's just the chorus and intro riff again until the end.

Enjoy!
Tap to rate this tab
 
# A B C D E F G H I J K L M N O P Q R S T U V W X Y Z