Song name
# A B C D E F G H I J K L M N O P Q R S T U V W X Y Z

Pierce The Veil - Wonderless tab

 okay this is my first tab, this is the whole intro before Vic starts
 singing. i watched some videos of Vic playing this song live and i just
 kinda figured out were his fingers where, or atleast i tried to figure it
 out. Anyways im pretty sure this is 99% right so yea.


e-------------------------------------------------------|
B-------------------------------------------------------|
G--------13---------13-------13---------13--------------|
D-----11---11----11---11---11--11----11----11-----------|
A-12----------12---------12-------12--------------------|
E-------------------------------------------------------|

e--------------------------------------|
B-------7----7--------7---7------------|
G----------9------------9---9--7-------|
D--0--7---------0--7-------------------|
A--------------------------------------|
E--------------------------------------|

e--------------------------------------------------------|
B--------------------------------------------------------|
G-------13----------13--------13-----14-----13-----------|
D----11----11----11---11----11---------------------------|
A-12----------12---------12-------12-----12-----12-------|
E--------------------------------------------------------|

e---------------------------------------------|
B------7----7------5--------------------------|
G---------9---9----7--------------------------|
D-0--7-------------5--------------------------|
A---------------------------------------------|
E---------------------------------------------|
Tap to rate this tab
 
# A B C D E F G H I J K L M N O P Q R S T U V W X Y Z