Pierce The Veil - Yeah Boy And Doll Face tab

-------------------------------------------------------------------------------
	         Yeah Boy and Doll Face - Pierce the Veil
-------------------------------------------------------------------------------
Tabbed by: jaysk8s
Email: jayroolzd00d@yahoo.com
Myspace.com/jayrulezd00d
twitter.com/jaysk8s

Tuning: Standard

~-let ring
/-slide up
\-slide down
.-palm mute
h-hammer on
p-pull off
*-pinch harmonic
<>-natural harmonic
()-ghost note
x-muted note


   Right now all i have is the rhythm guitar i am working on the lead and
i'll add it to this when i finish it.


Rhythm Guitar-[Vic Fuentes]

Intro(acoustic)                      x2
e|-xxx---------------------------------|-------------------------------|THEN-|
B|-xxx-5-55555-5-55555-----------------|-5-55555-----------------------|FIRST|
G|-xxx-6-66666-6-66666-4-44444-5-55555-|-6-66666-6-66666-5-55555555555-|PART-|
D|-xxx-6-66666-6-66666-4-44444-4-44444-|-6-66666-6-66666-6-66666666666-|AGAIN|
A|-xxx-4-44444-x-xxxxx-x-xxxxx-x-xxxxx-|-4-44444-x-xxxxx-x-xxxxxxxxxxx-|-----|
E|-xxx---------5-55555-4-44444-4-44444-|---------6-66666-5-55555555555-|-----|


e|----------------------------------------------|
B|----------------------------------------------|
G|-2-22222222222-2-22222222222-2-22222222222-2~-|
D|-2-22222222222-2-22222222222-2-22222222222-1~-|
A|-x-xxxxxxxxxxx-x-xxxxxxxxxxx-x-xxxxxxxxxxx-x--|
E|-2-22222222222-1-11111111111-0-00000000000-2~-|

Electric
e|---------------------------------------------------------------------------|
B|-x5-55555544444444---------------------------------------------------------|
G|-x6-......---------------------------6-6666666-6-6666666-6-666666666666666-|
D|-x6----------------7-777777777777777-6-6666666-6-6666666-6-666666666666666-|
A|-x4----------------7-777777777777777-4-4444444-x-xxxxxxx-x-xxxxxxxxxxxxxxx-|
E|-------------------5-555555555555555-----------6-6666666-5-555555555555555-|


e|-----------------------------|
B|-5-54455445544554-5-54455445-|
G|-6-66666666666666-6-66666666-|
D|-6-66666666666666-6-66666666-|
A|-4-44444444444444-4-44444444-|
E|-----------------------------|


e|------------------------------------------------------------------|
B|-5-55555-5-55555-----------------5-55555-5-55555------------------|
G|-6-66666-6-66666-4-44444-5-55555-6-66666-6-66666-4-44444-5-5-5~~/-|
D|-6-66666-6-66666-4-44444-4-44444-6-66666-6-66666-4-44444-4-4-4~~/-|
A|-4-44444-x-xxxxx-x-xxxxx-x-xxxxx-4-44444-x-xxxxx-x-xxxxx-x-x-x----|
E|---------5-55555-4-44444-4-44444---------5-55555-4-44444-4-4-4~~/-|


e|------------------------------------|-------------|
B|------------------------------------|-5~----------|
G|-6/-xxx66---------------------------|-6~-6~-4~-5~-|
D|-6/-xxx66-8/-xxx88-7--------------7-|-6~-6~-4~-4~-|
A|-4/-xxx44-8/-xxx88-7-7777-7-7-7-7-7-|-4~-x--x--x--|
E|----------6/-xxx66-5-5555-5-5-5-5-5-|----6~-4~-4~-|
                       .... . . . .

e|-------------------------------------------|
B|------9~-----9~----9~----------------------|
G|----9~-----9~----9~---9~-9-999999999999999-|
D|-10~----10~----8~-----9~-9-999999999999999-|
A|----------------------7~-7-777777777777777-|
E|-------------------------------------------|


e|---------------------------------------------------------------------------|
B|-x5-55555544444444---------------------------------------------------------|
G|-x6-......---------------------------6-6666666-6-6666666-6-666666666666666-|
D|-x6----------------7-777777777777777-6-6666666-6-6666666-6-666666666666666-|
A|-x4----------------7-777777777777777-4-4444444-x-xxxxxxx-x-xxxxxxxxxxxxxxx-|
E|-------------------5-555555555555555-----------6-6666666-5-555555555555555-|
                                                                    ........


e|--------|-----------------------------------------------------------|
B|--------|-----------------------------------------------------------|
G|--------|-------------------6-6666666-6-666666-6-666666666666xxxxxx-|
D|--------|-7-777777777777777-6-6666666-6-666666-6-666666666666xxxxxx-|
A|--------|-7-777777777777777-4-4444444-x-xxxxxx-x-xxxxxxxxxxxxxxxxxx-|
E|--------|-5-555555555555555-----------6-666666-5-555555555555xxxxxx-|

e||
B||
G||
D||
A||
E|| i'll finish this when i get time
Tap to rate this tab
 
# A B C D E F G H I J K L M N O P Q R S T U V W X Y Z