Pierce The Veil - Southern Constellations tab

It isn't 100% correct but i tried, enjoy

D|------------------------------------------------------------|
A|------2~~~~~--------0------2--------------------------------|
F|------2~~~~~--------1--------------2~~~~~-----------2--4\6--|
C|------4~~~~~--------2---------2----4~~~~~--------4----------|
G|-----------------------------------5~~~~~--------5----------|
D|------------------------------------------------------------|

D|------------------------------------------------------------|
A|---2~~~-------2---0-----------------------------2-----4\5--2|
F|---2~~~---2-------1------1----2~~~----4\6/4--2--2-----------|
C|---4~~~---4-------2-----------4~~~--------------4-----------|
G|------------------------------5~~~--------------------------|
D|------------------------------------------------------------|

D|-------0-----------------------------------------------------------------|
A|--0----2---------------------2--------2---0-------------------------5~~~-|
F|--1------1---2~~~------2--4--2-----2------1---1-------2-------2--4--2~~~-|
C|--2----------4~~~---4--------4------------2-----------4----4--------4~~~-|
G|-------------5~~~-------------------------------------5------------------|
D|-------------------------------------------------------------------------|
Tap to rate this tab
 
# A B C D E F G H I J K L M N O P Q R S T U V W X Y Z