Pierce The Veil - Besitos tab

Besitos by Pierce The Veil
tab by Tim Hurley
If there are any mistakes, please email them to me at timmhurley@gmail.com
this is my first tab, but i think this song deserved a correct tab without using a capo.
Tuning: drop db



C#|--8-0-12-0-0-0-0-8-0-12--(x 2)----7-0-10-0-0-0-0-7-0-10-----------|
A#|------------------------------------------------------------------|
F#|------------------------------------------------------------------|
C#|------------------------------------------------------------------|
G#|------------------------------------------------------------------|
C#|------------------------------------------------------------------|

C#|----------------------------------------------------------------------|
A#|----------------------------------------------------------------------|
F#|----------------------------------------------------------------------|
C#|----------------------------------------------------------------------|
G#|----------------------------------------------------------------------|
C#|--8-8-8-5-5-5-0-0-0-8-8-8-5-0-5-8-7-7-7-4-4-4-0-0-0-7-7-7-4-0-4-7-1-1-|

-------------------------------------------------------------|
-------------------------------------------------------------|
-------------------------------------------------------------|
-------------------------------------------------------------|
-------------------------------------------------------------|
1-5-5-5-8-8-8-1-1-1-5-0-5-8-0-0-0-4-4-4-7-7-7-0-0-0-4-0-4-7--|


C#|-------------------------------------------------|
A#|-------------------------------------------------|
F#|-------------------------------------------------|
C#|--55555555555--777777-888--5555555555--7/8888888-|
G#|-------------------------------------------------|
C#|-------------------------------------------------|

------------------------------------------|
------------------------------------------|
------------------------------------------|
10101010101-88888888-77777--444444-55555--| (repeat)
------------------------------------------|
------------------------------------------|



C#|------------------------------------------------------------------|
A#|------------------------------------------------------------------|
F#|------------------------------------------------------------------|
C#|-12--12-10-8--8-7-55555-7777------(repeat)------------------------|
G#|-10--10-8--6--6-5-33333-5555--------------------------------------|
C#|------------------------------------------------------------------|

C#|--8-0-12-0-0-0-0-8-0-12- (x4)-----7-0-10-0-0-0-0-7-0-10---(x4)--|repeat
A#|----------------------------------------------------------------|
F#|----------------------------------------------------------------|
C#|----------------------------------------------------------------|
G#|----------------------------------------------------------------|
C#|----------------------------------------------------------------|

C#|-------------------------------------------------------------------------|
A#|-------------------------------------------------------------------------|
F#|-------------------------------------------------------------------------|
C#|-------------------------------------------------------------------------|
G#|-------------------------------------------------------------------------|
C#|--8-8-8-5-5-5-0-0-0-8-8-8-5-0-5-8-7-7-7-4-4-4-0-0-0-7-7-7-4-0-4-7-1-1-1-5|

----------------------------------------------------------|
----------------------------------------------------------|
----------------------------------------------------------|
----------------------------------------------------------|
----------------------------------------------------------|
-5-5-8-8-8-1-1-1-5-0-5-8-0-0-0-4-4-4-7-7-7-0-0-0-4-0-4-7--|


C#|------------------------------------------------------------------|
A#|------------------------------------------------------------------|
F#|------------------------------------------------------------------|
C#|-----------------12 ~ --------------------------------------------|
G#|------------------------------------------------------------------|
C#|----6 ~ ----------------------------------------------------------|

C#|------------------------------------------------------------------|
A#|------------------------------------------------------------------|
F#|------------------------------------------------------------------|
C#|-12--12-10-8--8-7-55555-7777------(repeat)------------------------|
G#|-10--10-8--6--6-5-33333-5555--------------------------------------|
C#|------------------------------------------------------------------|

C#|------------------------------------------------------------------|
A#|------------------------------------------------------------------|
F#|------------------------------------------------------------------|
C#|--5-88-44-55-55-77-44-55-4-------(repeat)-------------------------|
G#|--5-66-44-33-55-55-44-33-4----------------------------------------|
C#|--5----44----55----44----4----------------------------------------|

C#|------------------------------------------------------------------|
A#|------------------------------------------------------------------|
F#|------------------------------------------------------------------|
C#|---5-7-8/12-10h12p10h12h10--8--5-7-5-8-4-5-4-0--------------------|
G#|------------------------------------------------------------------|
C#|------------------------------------------------------------------|

C#|------------------------------------------------------------------|
A#|------------------------------------------------------------------|
F#|------------------------------------------------------------------|
C#|------------------------------------------------------------------|
G#|--1111111111-55555555555555---------------------------------------|
C#|----------------------------555555555555-444444444-00000000-------|

C#|------------------------------------------------------------------|
A#|------------------------------------------------------------------|
F#|------------------------------------------------------------------|
C#|------------------------------------------------------------------|
G#|------------------------------------------------------------------|
C#|--8-8-8-5-5-5-0-0-0-8-8-8-5-0-5-8-7-7-7-4-4-4-0-0-0-7-7-7-4-0-4-7-|

-----------------------------------------------------------------|
-----------------------------------------------------------------|
-----------------------------------------------------------------|
-----------------------------------------------------------------|
-----------------------------------------------------------------|
1-1-1-5-5-5-8-8-8-1-1-1-5-0-5-8-0-0-0-4-4-4-7-7-7-0-0-0-4-0-4-7--|


C#|------------------------------------------------------------------|
A#|------------------------------------------------------------------|
F#|------------------------------------------------------------------|
C#|--8-5-0-8-5-0-5-8-7-4-0-7-4-0-4-7-1-5-8-1-5-0-5-8-0-4-7-0-4-0-4-7-|
G#|--8-5-0-8-5-0-5-8-7-4-0-7-4-0-4-7-1-5-8-1-5-0-5-8-0-4-7-0-4-0-4-7-|
C#|--8-5-0-8-5-0-5-8-7-4-0-7-4-0-4-7-1-5-8-1-5-0-5-8-0-4-7-0-4-0-4-7-|

--------------------------------------------------------------|
--------------------------------------------------------------|
----------------------15b-------------------------------------|
--0-----------------------------------------------------------|
--5/----12/17-------------------------------------------------|
--0-----------------------------------------------------------|


C#|-------------------------------------------------------------------|
A#|-------------------------------------------------------------------|
F#|-------------------------------------------------------------------|
C#|-12--12-10-8--8-7-55555-7777------(repeat x 4)------55555-7777-----|(x2)
G#|-10--10-8--6--6-5-33333-5555------------------------33333-5555-----|
C#|-------------------------------------------------------------------|

C#|-----0-8-12-0-8-12-0-7-10-0-7-10-0-7-10-----------------------|
A#|--------------------------------------------------------------|
F#|-------------------------------------------------10h12-10h12--|
C#|--------------------------------------------------------------|
G#|--------------------------------------------------------------|
C#|--------------------------------------------------------------|

------------------------------12--------------------------------|
13-11-10-13-------------13-11------(repeat this section)--------|
------------10h12-10h12--------------------------------------12-|
----------------------------------------------------------------|
----------------------------------------------------------------|
----------------------------------------------------------------|
Tap to rate this tab
 
# A B C D E F G H I J K L M N O P Q R S T U V W X Y Z