Song name
# A B C D E F G H I J K L M N O P Q R S T U V W X Y Z

Pierce The Veil - Southern Constellations tab

 |-------------------------------------------------------------------------|
 |-------------------------------------------------------------------------|
 |-------------------------------------------------------------------------|
 |-9~-----5~----9-------------7--9~----9--5~--9--------7/9-7---9~----9--5~-|
 |-7~-----7~-----9--10~-- 7-10---7~---7---7~---9--10~-------7--7~---7---7~-|
 |-------------------8~----------------------------8~----------------------|

 
 |-------------------------------------------------------------------------|
 |-------------------------------------------------------------------------|
 |-------------------------------------------------------------------------|
 |-9------------7--9~----9--5~--9------------7-7~-9-9-9-9-9-9-9-9-9-9-9-9--|
 |--9--10~--7-10---7~--7----7~---9--10~--7-10-----7-7-7-7-7-7-7-7-7-7-7-7--|
 |------8~---------------------------8~------------------------------------|
Tap to rate this tab
 
# A B C D E F G H I J K L M N O P Q R S T U V W X Y Z