Song name
# A B C D E F G H I J K L M N O P Q R S T U V W X Y Z

Pierce The Veil - Kissing In Cars tab

This is the tab for the Kissing in Cars, which Jamie plays on their live concerts. I 
learned it by ear. Hope this helps :)

Here's the tuning. It's not really complicated at all.

-----
D
A
D
G
A
D

Starts from the thickest string to the thinnest.
-----


Intro:

Intro/Verse                                 x4
D--x-------x---x-----|--x-------x---x---|
A--2-------9---7-----|--2-------9---7---|
D--2-------9---7-----|--2-------9---0---|
G--0-------0---0-----|--0-------0---0---|
A--0-------0---0-----|--0-------0---0---|
D--0-------0---0-----|--0-------0---0---|



Pre-Chorus:          x1
D--5-------0---5---0|
A--6-------0---6---0|
D--0-------0---0---0|
G--0-------2---0---0|
A--5-------2---5---0|
D--0-------0---7---0|


Chorus:      x1
D--0---5---------5-----|
A--0---6--2------6-----|
D--0------2---2-----2--|
G--0----------2-----2--|
A--0-------------------|
D--0-------------------|



Then repeat the intro.

Intro/Verse                                 x4
D--x-------x---x-----|--x-------x---x---|
A--2-------9---7-----|--2-------9---7---|
D--2-------9---7-----|--2-------9---0---|
G--0-------0---0-----|--0-------0---0---|
A--0-------0---0-----|--0-------0---0---|
D--0-------0---0-----|--0-------0---0---|


Then
Chorus:      x1
D--0---5---------5-----|
A--0---6--2------6-----|
D--0------2---2-----2--|
G--0----------2-----2--|
A--0-------------------|
D--0-------------------|





So that's it. hope that I helped you. :D
Tap to rate this tab
 
# A B C D E F G H I J K L M N O P Q R S T U V W X Y Z