Song name
# A B C D E F G H I J K L M N O P Q R S T U V W X Y Z

Pierce The Veil - Chemical Kids And Mechanical Brides tab

I had to post this up before anyone else because it took me forever to get this 
completely down and it is literally 95% accurate.

Standard Tunning(TAB CORRESPONDS TO THE CAPO!!)
CAPO STAYS ON UNTIL THE SOLO (FOR BOTH GUITARS)

Guitar 2(This all i could get, the two bottom notes are correct its just the top one is 
an octave below the songs version, if you have any suggestions please tell me)Capo on 
the 1st Fret

|----------------------------|x24
|--10---10-10-10-10-10-------|
|---9----9--9--9--9--9-------|
|--10---10-10-10-10-10-------|
|----------------------------|
|----------------------------|

Guitar 1 Capo on the 6th Fret
                      "Like a Rush....."
|------------------------------|---------------------------------|
|----------------5~---------5~-|---------------------------------|
|---------2~--4~------2~--4~---|----------2~--4~--0~-------------|
|--------2~----------2~--------|---------2~----------------------|
|------------------------------|---------------------------------|
|------------------------------|---------------------------------|

Guitar 1 continued..
"Everyone is Watching..."
|------------------------------|x4
|------------------------------|
|---4p2-4p2---4p0-2p0--2h4p0---|
|----------------------------2-|
|------------------------------|
|------------------------------|
Guitar 2
"Told you why..."                 "A love you..."
|-------------------------------|x2-----------------------------|x2
|-------------------------------|-------------------------------|
|-------------------------------|-------------------------------|
|-------------------------------|-------------------------------|
|--5-5p3p0-----5p0-3p0----------|--3-3p2p0-----3p0-2p0----------|
|----------3h5---------3p0-3h5--|----------3h5---------3p0-3h5--|

Guitar 1
|-------------------------------|-------------------------------|
|---------0000000000000000------|----000000000000000000000000---|
|---------0000000000000000------|----444444444444222222222222---|
|---------2222222222222222------|----000000000000000000000000---|
|-------------------------------|-------------------------------|
|-------------------------------|-------------------------------|

Guitar 2
"If this is it..."                "I'm a Chemical Kid.."
|------------------------------|x2------------------------------|
|------------------------------|--------------------------------|
|------------------------------|--------------------------------|
|------------------------------|--------------------------------|
|-5-5p3p0-----5p0-3p0----------|-3-3p2p0-----3p0-2p0-3p0-3h5----|
|---------3h5---------3p0-3h5--|---------3h5--------------------|

Guitar 1
|------------------------------|--------------------------------|
|-----000000000000000000000----|--------0000000000000-----------|
|-----000000000000000000000----|--------4444444444444-----------|
|-----222222222222222222222----|--------0000000000000-----------|
|------------------------------|--------------------------------|
|------------------------------|--------------------------------|

Guitar 2
"You're a Mechanical..."
|------------------------------|
|------------------------------|
|------------------------------|
|------------------------------|
|--5-5p3p0-----5p0-3p0---------|
|----------3h5---------3p0-3h5-|

Guitar 1

|------------------------------|
|---------0000000--------------|
|---------2222222--------------|
|---------0000000--------------|
|------------------------------|
|------------------------------|

Guitar 2
|------------------------------|x3----------------------------------|
|------------------------------|------------------------------------|
|------------------------------|------------------------------------|
|---777777777777777777---------|--14-1414--12-1212--10-1010--9-99---|
|---777777777777777777---------|--14-1414--12-1212---8--8-8--9-99---|
|---555555555555555555---------|--12-1212--10-1010---8--8-8--7-77---|

Guitar 1
|--------00000000000000---------|x2------------------------------------|
|--------00000000000000---------|-------6^--6^--6^--6^--6^--6^--6^-----|
|--------00000000000000---------|-----10^-10^-10^-10^-10^-10^-10^------|
|--------22222222222222---------|--------------------------------------|
|--------22222222222222---------|--------------------------------------|
|--------00000000000000---------|--------------------------------------|

|----------------------------------------------------------------------|
|----------------------------------------------------------------------|
|----------------------------------------------------------------------|
|--9-99--7-77--5-55--4-44----------------------------------------------|
|--x-xx--x-xx--x-xx--x-xx----------------------------------------------|
|--7-77--5-55--3-33--2-22----------------------------------------------|

Guitar 2
"When every vain..."              "..On accouunt of.."  "SmileSmile"
|------------|x3-----------------|--------------------------------------|
|------------|-------------------|5p3-----------------------------------|
|------------|-------------------|---5p2p0h2--7-5-----------------------|
|--7-77777x--|--7-77x5-55x3~-----|----------------5-7-----7~--7~--7-5-3~|
|--7-77777x--|--7-77x5-55x3~-----|----------------5-7-----7~--7~--7-5-3~|
|--5-55555x--|--5-55x3-33x1~-----|----------------3-5-----5~--5~--5-3-1~|

Guitar 1
|--------------------------------|
|---------------8^10////5////----| Tremelo pick and slide down
|--------------------------------|
|--------------------------------|
|--------------------------------|
|--------------------------------|

Guitar 2 Take capo off here right after the last note
|--------------------------------|
|--------------------------------|
|--------------------------------|
|---------7~----3~---------------|
|---------7~----3~---------------|
|---------5~----1~---------------|

Guitar 1 Take off Capo here before the first note
"Smile Smile"
|-------------------------------------------------------------|
|-----/13~\9~--/6------------6--------------------------------|
|---------------------6-------------6------5h6p5h6p5h6p5h6p5h6|
|----------------6h7h8--6h7h8--6h7h8--6h7h8-------------------|
|-------------------------------------------------------------|
|-------------------------------------------------------------|

Guitar 1&2 (*****BOTH GUITARS, NO CAPO FOR THE REST OF THE SONG*****)
"ive been looking.."
|-------------------------------|x2
|-------------------------------|
|-------------------------------|
|----4-44--4--4-----8-88---8--8-|
|----4-44--4--4-----8-88---8--8-|
|----2-22--2--2-----6-66---6--6-|
     * **  *  *     * **   *  *

Guitar 2 Repeat the whole thing twice
"All for you.."   "You alone.."
|-------------|x4----------------|x4
|-------------|------------------|
|-------------|------------------|
|-131313131313|-------888888-----|
|-131313131313|-------888888-----|
|-111111111111|-------666666-----|

Guitar 1 Tremlo pick
|-----------------------------------------------------------------|
|--7/19\18\14/16\14\13\9\6~~/13/14/16\14\13\9\7/22/19/18~~--------|
|-----------------------------------------------------------------|
|-----------------------------------------------------------------|
|-----------------------------------------------------------------|
|-----------------------------------------------------------------|

Guitar 1&2
"Dont Torture me"
|-----------------------------------------------------------------|
|-----------------------------------------------------------------|
|-----------------------------------------------------------------|
|-13131313---13~-151515-131313-8888----8888888--------------------|
|-13131313---13~-151515-131313-8888----8888888--------------------|
|-11111111---12~-131313-111111-6666----6666666--------------------|
                  * * *  * * *          **

Guitar 1
"As you fall..of the.. all the nightmares.."        "all the stars.."
|--------|x4------|X4--------------------------------|-------|x4
|---14-19|---14-18|----14-19---14-18---14-16---14-18-|--14-18|
|--15----|--15----|--15-------15------15------15-----|-15----|
|-16-----|-15-----|-16-------15------13------15------|15-----|
|--------|--------|----------------------------------|-------|
|--------|--------|----------------------------------|-------|

"THrough the.."                "Hahahahahaha"
|--------|x2--------------|-----------|
|---14-16|---13-16---14-16|-----6~----|
|--15----|--15------15----|-----6~----|
|-13-----|-15------13-----|-----8~----|
|--------|----------------|-----------|
|--------|----------------|-----------|


Thanks if you'll cant understand this let me know andif you have any tips, corrections, 
etc. send me a message and i'll fix them! Peace!
                           Pierce the Veil!!!!!
Tap to rate this tab
 
# A B C D E F G H I J K L M N O P Q R S T U V W X Y Z