Song name
# A B C D E F G H I J K L M N O P Q R S T U V W X Y Z

Pierce The Veil - Southern Constellations tab

Tabbed by: wtflolbbq

This is Southern Constellations by Pierce the Veil off their Selfish Machines album.
Without any further ado...

e|----------------------------------------------------------------|
B|----------------------------------------------------------------|
G|-4-------2---4------------0-2/4-4-----4-2---------------2h4-2-0-|
D|-2-------0-----4-5------2-------2---2---0---4---5---------------|
A|-----------------3------3-----------------------3---------------|
E|----------------------------------------------------------------|

e|--------------------------------------------------|
B|---------------0~---------------------------------|
G|-4---4/5-4-2-----2----------0-2-4-----4-2---------|
D|-2---------0-------5------2-----2---2---0---4---5-|
A|-------------------3------3---------------------3-|
E|--------------------------------------------------|

e|-------------|---|
B|-------------|---|
G|---0-2-4~----|-4-|
D|-2-----4~----|-5-| repeat & palm mute till end
A|-3-----------|-2-|
E|-------------|---|


And that's it!
Enjoy gents.
Tap to rate this tab
 
# A B C D E F G H I J K L M N O P Q R S T U V W X Y Z