Song name
# A B C D E F G H I J K L M N O P Q R S T U V W X Y Z

Pierce The Veil - She Makes Dirty Words Sound Pretty tab

          

          Guitar 1 & 2 intro chorus repeat until "don't talk just ride"
|-(4)-(4)-(4)-----(5)-(5)-(5)-|
|--4---5---4-------5---7---5--|
|--4---4---4-------5---5---5--|
|--6---6---6-------7---7---7--|
|--7---7---7-------0---0---0--|
|--0---0---0-------0---0---0--|


          Guitar 1 "who wouldn't let you be all about"
|-----------------------------------------------------------------------|
|-----------------------------5-5----5-5----5-5-7-7-5-5-5---------------|
|-4-4----4-4----4-4----4-4----5-5----5-5----5-5-5-5-5-5-5----4-4----4-4-|
|-6-6----6-6----6-6----6-6----7-7----7-7----7-7-7-7-7-7-7----6-6----6-6-|
|-7-7----7-7----6-6----6-6-----------------------------------7-7----7-7-|
|-----------------------------------------------------------------------|

|---------------------------------------------------------|
|-----------------------------5-5----5-5----5-5-7-7-5-5-5-|
|-4-4----4-4----4-4----4-4----5-5----5-5----5-5-5-5-5-5-5-|
|-6-6----6-6----6-6----6-6----7-7----7-7----7-7-7-7-7-7-7-|
|-7-7----7-7----6-6----6-6--------------------------------|
|---------------------------------------------------------|          


         Guitar 2 "who wouldn't let you be all about"

|-----------------------------------------------7-7-7-7------|
|-----4---4---4-5-----4---4---4-5---5-7-5-----5--------5-4-5-|
|-1/4---4---4-----1/4---4---4-----4-------4-4----------------|
|------------------------------------------------------------|
|------------------------------------------------------------|
|------------------------------------------------------------|         

|-----------------------------------------------7-7-7-7---------|
|-----4---4---4-5-----4---4---4-5---5-7-5-----5--------5-5-5-5--|
|-1/4---4---4-----1/4---4---4-----4-------4-4-------------------|
|---------------------------------------------------------------|
|---------------------------------------------------------------|
|---------------------------------------------------------------|  

         

          
         Guitar 1 & 2 chorus
|-(4)-(4)-(4)-----(5)-(5)-(5)-|
|--4---5---4-------5---7---5--|
|--4---4---4-------5---5---5--|
|--6---6---6-------7---7---7--|
|--7---7---7-------0---0---0--|
|--0---0---0-------0---0---0--|


          
              Guitar 1 "into a soft pillow" 
|------------------------------------------------------------------|
|------------------------------------------------------------------|
|-4-4-4-4-4-4-4-4-4-4-4-4-4-4-4-4--2-2-2-2-2-2-2-2-2-2-2-2-2-2-2-2-| x2
|-4-4-4-4-4-4-4-4-4-4-4-4-4-4-4-4--2-2-2-2-2-2-2-2-2-2-2-2-2-2-2-2-|
|-2-2-2-2-2-2-2-2-2-2-2-2-2-2-2-2--0-0-0-0-0-0-0-0-0-0-0-0-0-0-0-0-|
|------------------------------------------------------------------|


           Guitar 2 "into a soft pillow"
|------------|
|-5-5-4-4----|
|--------4-4-| x8 
|------------|
|------------|
|------------|

                   (Rest of the Song)
          |-(4)-(4)-(4)-----(5)-(5)-(5)---(4)-|
          |--4---5---4-------5---7---5-----5--|
          |--4---4---4-------5---5---5-----4--|
          |--6---6---6-------7---7---7-----6--|
          |--7---7---7-------0---0---0-----7--|
          |--0---0---0-------0---0---0-----0--|



         Guitar 2 ending

|---------------------------|
|-------10-10/12-10-9--9~---|
|------9---------------9~---|
|---7/9----------------9~---|
|---------------------------|
|---------------------------|


that's it! my first time tabbing out a song, send comments or corrections (:
Tap to rate this tab
# A B C D E F G H I J K L M N O P Q R S T U V W X Y Z