Song name
# A B C D E F G H I J K L M N O P Q R S T U V W X Y Z

Pierce The Veil - Props Mayhem tab

Guitar 1

INTRO

e---------------------------------|
B---------------------------------|
G----------99999999-7-77-77-7-7-7-|
D-22222222-77777777-7-77-77-7-7-7-|
A-22222222-77777777-5-55-55-5-5-5-|
D-22222222-77777777---------------|

VERSE
e------------------------------------------|
B------------------------------------------|
G-------------------99999999-7-77-77-7-7-7-|
D-55555555-22222222-77777777-7-77-77-7-7-7-|
A-55555555-22222222-77777777-5-55-55-5-5-5-|
D-55555555-22222222-77777777---------------|
  ........ ........ ........

e-------------------------------------------------|
B-------------------------------------------------|
G-------------------99-999-999-999-77-777-777-777-|
D-55555555-22222222-77-777-777-777-77-777-777-777-|
A-55555555-22222222-77-777-777-777-55-555-555-555-|
D-55555555-22222222-77-777-777-777----------------|

PRE-CHORUS

e-----------------------------|
B-----------------------------|
G-----------------------------|
D-5555555555555555-77777777-9-|
A-----------------------------|
D-----------------------------|
  ................ ........

CHORUS

e-----------------------------------------------------------------|
B-----------------------------------------------------------------|
G-------------------99999999-111111111111111-14141414-11111111-12-|
D-55555555-22222222-77777777-x-x-x-x-x-x-x-x-x-x-x-x-x-x-x-x--x--|
A-55555555-22222222-77777777-9-9-9-9-9-9-9-9-12121212-9-9-9-9--10-|
D-55555555-22222222-77777777--------------------------------------|

2nd VERSE

e-------------------------------|
B-------------------------------|
G-777-777-444-444-999-999-777-7-|
D-555-555-222-222-777-777-777-7-|
A-555-555-222-222-777-777-555-5-|
D-555-555-222-222-777-777-------|

PRE-CHORUS

e-------------------------|
B-------------------------|
G-------------------5~-7~-|
D-55-55-5-7-5-22-22-5~-7~-|
A-55-55-5-7-5-22-22-3~-5~-|
D-55-55-5-7-5-22-22-------|

REPEAT CHORUS

CHORUS PT2

e------------------------------------------------------------|
B------------------------------------------------------------|
G-------------55555555-44444444-77777777-1414141414141414-9~-|
D-5~-22222222-xxxxxxxx-xxxxxxxx-xxxxxxxx-x-x-x-xx-x-x-x--9~-|
A-5~-22222222-33333333-22222222-55555555-1212121212121212-7~-|
D-5~-22222222------------------------------------------------|

FILL

e-----------|
B-----------|
G-7777-8888-|
D-7777-8888-|
A-5555-6666-|
D-----------|

ADLIB

e---------------------17s19-17-15-14-15----14-15-17----|
B---------------------------------------15----------17-|
G----------44444444-5----------------------------------|
D-55555555-44444444-5----------------------------------|
A-55555555-22222222-3----------------------------------|
D-55555555---------------------------------------------|

CHORUS

e-------------------------------------|
B-------------------------------------|
G-------------------99999999-11111111-|
D-55555555-22222222-77777777-x-x-x-x--|
A-55555555-22222222-77777777-9-9-9-9--|
D-55555555-22222222-77777777----------|

e------------------------------------------------------|
B------------------------------------------------------|
G-----------------------55555555-7777-444444-----------|
D-5555-5555-22222222-7~-55555555-7777-444444-444444-5~-|
A-5555-5555-22222222-7~-33333333-5555-222222-444444-5~-|
D-5555-5555-22222222-7~----------------------444444-5~-|
  ....  . . ........                  ...... ......
 

Guitar 2

INTRO

e-3---3---3---3---3---3---3---3---|
B---------------------------------|
G---4---4---4---4---4---4---4---4-|
D---------------------------------|
A---------------------------------|
D---------------------------------|

e-0---0---0---0---0---0---0---0---|
B---------------------------------|
G---0---0---0---0---0---0---0---0-|
D---------------------------------|
A---------------------------------|
D---------------------------------|

e---------------------------------|
B-1p0-1---1p0-1---1p0-1---1p0-1---|
G-------2-------2-------2-------2-|
D---------------------------------|
A---------------------------------|
D---------------------------------|

e----------------------|
B----------------------|
G---0----0----55-44----|
D-5---55---55-------77-|
A-5---55---55----------|
D-5---55---55----------|

e--------------------------------------|
B--------------------------------------|
G--------------------------------------|
D-55555555-7777-5555----------55555555-|
A--------------------77777777----------|
D--------------------------------------|
  ........ .... .... ........ ........

e-7~-5~------------------------|
B-8~-7~------------------------|
G-9~-7~-77-777-4-5-4-5-4-2-----|
D-------77-777-------------5-4-|
A-------55-555-----------------|
D------------------------------|

e--------------------------------------|
B--------------------------------------|
G--------------------------------------|
D-55555555-7777-5555----------55555555-|
A--------------------77777777----------|
D--------------------------------------|

e-------7~-----------------------------|
B---5----------------------------------|
G-7---7----77-777-11111111-14141414-12-|
D----------77-777-x-x-x-x--x-x-x-x--x--|
A----------55-555-9-9-9-9--12121212-10-|
D--------------------------------------|

PRE-CHORUS

e--------------------------------|
B--------------------------------|
G--------------------------------|
D----------4444-5555-4444------4-|
A-55555555----------------7777---|
D--------------------------------|
  ....... .... ........ ....

e-----------------------------------------|
B-----------------------------------------|
G-----------------------------------------|
D-t5-7-9-12-t5-7-9-12-t5-7-9-12-t5-7-9-12-|
A-----------------------------------------|
D-----------------------------------------|

CHORUS

e-3---3---3---3---3---3---3---3---|
B---------------------------------|
G---4---4---4---4---4---4---4---4-|
D---------------------------------|
A---------------------------------|
D---------------------------------|

e-0---0---0---0---0---0---0---0---|
B---------------------------------|
G---0---0---0---0---0---0---0---0-|
D---------------------------------|
A---------------------------------|
D---------------------------------|

e---------------------------------|
B-1p0-1---1p0-1---1p0-1---1p0-1---|
G-------2-------2-------2-------2-|
D---------------------------------|
A---------------------------------|
D---------------------------------|

e-------------------|
B-------------------|
G-77777777777777777-|
D-77777777777777777-|
A-55555555555555555-|
D-------------------|

2nd VERSE

e-------------------------------------------------------|
B-------------------------------------------------------|
G-------------------------------------------------------|
D-------------------------------------5---------5-----7-|
A---5---------5---------2---------2-3---3-3-0-3---3-5---|
D-5---5-5-0-5---5-5-0-2---2-2-0-2-----------------------|

FILL

e----------10p7-------|
B--------8------8-----|
G------7----------9---|
D----9--------------7-|
A-10------------------|
D---------------------|
sweep

e----------10------------------------|
B----10-------10----12~----10----12~-|
G-12----12-------12-----12----12-----|
D------------------------------------|
A------------------------------------|
D------------------------------------|

e----------10------------------------------|
B----10-------10----12----10-12s13-12-10s8-|
G-12----12-------12----12------------------|
D------------------------------------------|
A------------------------------------------|
D------------------------------------------|

e------10------10-8-7~-7b--|
B----8-------8---------10b-|
G-11------11---------------|
D--------------------------|
A--------------------------|
D--------------------------|

REPEAT CHORUS

CHORUS PT2

e-----------------------------------------------|
B-----------------------------------------------|
G-12121212-14141414-1616-1414-12121212-99999999-|
D-x-x-x-x--x-x-x-x--x-x--x-x--x-x-x-x--xxxxxxxx-|
A-10101010-12121212-1414-1212-10101010-77777777-|
D-----------------------------------------------|

e---------------------------------|
B-1p0-1---1p0-1---1p0-1---1p0-1---|
G-------2-------2-------2-------2-|
D---------------------------------|
A---------------------------------|
D---------------------------------|

e------------------------------|
B------------------------------|
G-77777777777777777------------|
D-77777777777777777-7----------|
A-55555555555555555-7(tremolo)-|
D-------------------7----------|

ADLIB

e-------------|
B-------------|
G-------------|
D-------------|
A-------5~-6~-|
D-7~-5~-------|
tremolo

e--------------------------------------|
B--------------------------------------|
G---7~----------------5~-----7777-8888-|
D---7~---------5~-----5~-----7777-8888-|
A-5-5~-5s7-----5~-2-3-3~-3---5555-6666-|
D----------4-5-5~----------5-----------|

e-------------------------------------10-----10-----10----------------------|
B-10-12-10-12-10-12-12b-10p8-10-8-7h8----7h8----7h8----10h12-10-8h10-8-7----|
G------------------------------------------------------------------------7s9|
D---------------------------------------------------------------------------|
A---------------------------------------------------------------------------|
D---------------------------------------------------------------------------|

e-19-17-15-14-15-22-14-15-17-23-17s19-17-15h17-|
B----------------------------------------------|
G----------------------------------------------|
D----------------------------------------------|
A----------------------------------------------|
D----------------------------------------------|

REPEAT CHORUS

e-----------|
B-----------|
G-----------|
D-5555-5555-|
A-5555-5555-|
D-5555-5555-|
  ....  . .

e-3---3---3---3---3---3---3---3---|
B---------------------------------|
G---4---4---4---4---4---4---4---4-|
D---------------------------------|
A---------------------------------|
D---------------------------------|

e-0---0---0---0---0---0---0---0---|
B---------------------------------|
G---0---0---0---0---0---0---0---0-|
D---------------------------------|
A---------------------------------|
D---------------------------------|

e---------------------------------|
B-1p0-1---1p0-1---1p0-1---1p0-1---|
G-------2-------2-------2-------2-|
D---------------------------------|
A---------------------------------|
D---------------------------------|


e--------------------------|
B--------------------------|
G-77777777-444444----------|
D-77777777-444444-444444-5-|
A-55555555-222222-444444-5-|
D-----------------444444-5-|
          ............
  

Bass

INTRO

G---------------------------------|
D---------------------------------|
A-------------------5-55-55-5-5-5-|
D-22222222-77777777---------------|


1st VERSE
G-------------------------------------------------------------------------|
D-------------------------------------------------------------------------|
A---------------------------------------------------------55-555-55-5-5-5-|
D-55555555-7777-5555-22222222-0-22222222-7777777777777777-----------------|

G----------------------------------------------------------------------|
D----------------------------------------------------------------------|
A-------------------------------------------------------55-555-555-555-|
D-55555555-7777-5555-22222222-0-22222222-77-777-777-777----------------|


CHORUS
G-------------------------------------|
D-------------------------------------|
A-------------------------------------|
D-55555555-22222222-77777777-00000000-|

2nd VERSE

G-----|-------|-----|-------|----|----|
D-----|-------|-----|-------|----|----|
A-----|-------|-----|-------|-3--|-5--|
D-5---|-5-0-5-|-5-2-|-2-0-2-|----|----|

PRE-CHORUS

G-------------------|----|----|
D-------------------|----|----|
A-------------------|-3--|-5--|
D-55-55-5-7-5-22-22-|----|----|

REPEAT CHORUS




CHORUS PT2

G--------------------------------|
D--------------------------------|
A------------33333333-55555555-7-|
D-5-22222222---------------------|

ADLIB

G---------|
D---------|
A-----5-6-|
D-7-5-----|

G-----|-----------|-------|-----------------------|
D-----|-----------|-------|-----------------------|
A-5-5-|-5s7-------|-2-3-3-|-3---55555555-66666666-|
D-----|-----4-5-5-|-------|---5-------------------|

G---------------------------------------------------------------------------|
D---------------------------------------------------------------------------|
A------------------22222222-55555555-33333333------------5555-------66666666|
D-5555555555555555----------------------------5555-44-55------55-77---------|

REPEAT CHORUS

G-----------------------------------------------------------------------|
D-----------------------------------------------------------------------|
A-----------------------------3333333333333333-55555555-222222----------|
D-5555-5-5-22222222-7-3-5h7-5----------------------------------444444-5-|


Self Medicate, While they sleep we let the night chase
Evil things away
And We're like animals homesick from shows
We've got to kill everything before the night gets wasted

Maybe it's seem so changed
But we don't even stressed at all
'Cause we got poisons

Everything you got

Burst into flames, scream in the dark!
I'm gonna light up this place and die in beautiful stars tonight!

Does it even make a difference?
When I'm sober, I feel pain.
'Cause we run under the stars through cemetery backyards,
Celebrate the way the night hides scars.

So dance!
If it moves you.
Jump in the fire
If it burns you.

I'll throw my arms around you darling
And we'll turn to ashes drowning in the flame!

Burst into flames, scream in the dark!
I'm gonna light up this place and die in beautiful stars!

What if these demons keep falling from the sky?
Sometimes I love the way you swing the flame and everything inside!

Separate me from my own two hands, I've killed so many times,
But I can't save the world from the creatures that don't die.

I kinda like the way you tell me "baby, please come home,
I need you here right now, I'm crying in the water so you don't hear the sound!

Burst into flames, scream in the dark!
I'm gonna light up this place! Oh oh oh yeah!

And there will be the only lie
I'll be the only boy.

tabbed by Alphie Velasco

not so sure but sounds about right
Tap to rate this tab
# A B C D E F G H I J K L M N O P Q R S T U V W X Y Z