Song name
# A B C D E F G H I J K L M N O P Q R S T U V W X Y Z

Pierce The Veil - Props Mayhem tab

-----------------------------------------------------------------------------
                             PROPS & MAYHEM - Pierce The Veil
-----------------------------------------------------------------------------
Tabbed by: Nano511
E-mail: enano896#hotmail.com

Tuning: Drop D



Intro (0:00-0:14)
Rhythm
e----------------------------------------------------------------|
B----------------------------------------------------------------|
G----------------------------------------------------------------|
D-4----5------109107109107109107109107--00-000-0-1212-1010-99-77-|
A-2(8x)2(8x)--7-77-77-77-77-77-77-77-7--00-000-0-1212-1010-99-77-|
D-2----2------7-77-77-77-77-77-77-77-7--00-000-0-1212-1010-99-77-|
Lead
e-3-2-3---|    0---0---|    --------|    -------------------|
B-------0-|(4x)--3-----|(4x)1-0-1---|(4x)-------------------|
G---------|    ------0-|    ------2-|    ---0---0--775544---|
D---------|    --------|    --------|    -4---4----------44-|
A---------|    --------|    --------|    -------------------|
D---------|    --------|    --------|    -------------------|

Verse (0:15-0:44)
*Note that both verses have different endings so make sure to go back to the top part 
after playing the first ending and finish with the second ending the second time.
e----------------------------------------------------------|
B----------------------------------------------------------|
G----------------------------------------------------------|
D-9999999977775555--4444444455555555--7-77-7-77-7--00-000-0|
A-5555555555555555--2222222222222222--7-77-7-77-7--00-000-0|
D-5555555555555555--2222222222222222--7-77-7-77-7--00-000-0|

Verse First Ending   Verse Second Ending
e-------|           e-------------|
B-------|           B-------------|
G-------|           G-------------|
D-44-94-|           D-00-022-24-7-|
A-44-94-|           A-00-022-24-7-|
D-44-94-|           D-00-022-24-7-|


Pre Chorus(0:45-0:50)
e---------------------------|
B---------------------------|
G---------------------------|
D-2222222244445555777755554-|
A-3333333333333333555555555-|
D---------------------------|


Chorus(0:51-1:08)
e-----------------------------------------------------------|
B-----------------------------------------------------------|
G-----------------------------------------------------------|
D-9999999977775555-4444444455555555-7------0000000077774444-|
A-5555555555555555-2222222222222222-7(16x)-0000000000000000-|
D-5555555555555555-2222222222222222-7------0000000000000000-|

Verse (1:09-1:38)
*Note that it is actually a base line playing here but these chords
work too. I would just give you the base line but it reaches down
too low.
e----------------------------------------------------------|
B----------------------------------------------------------|
G----------------------------------------------------------|
D-9999999977775555--4444444455555555--10-----12------------|
A-5555555555555555--2222222222222222--10(16x)12(8x)--------|
D-5555555555555555--2222222222222222--10-----12------------|

e-----------------------------------------------------------|
B-----------------------------------------------------------|
G-----------------------------------------------------------|
D-55-555--5-7-5-22-22--10-----12----------------------------|
A-55-555--5-7-5-22-22--10(16x)12(8x)------------------------|
D-55-555--5-7-5-22-22--10-----12----------------------------|


Chorus(1:39-2:08)
e-------------------------------------------------------------|
B-------------------------------------------------------------|
G-------------------------------------------------------------|
D-4----5-----7------0-------5--4----5------7------0-----5-----|
A-2(8x)2(8x)-7(16x)-0(16x)--5--2(8x)2(8x)--7(16x)-0(8x)-5(8x)-|
D-2----2-----7------0-------5--2----2------7------0-----5-----|


Bridge(2:09-2:53)
e------------------------------------------------------------|
B------------------------------------------------------------|
G------------------------------------------------------------|
D------------------------------------2-2---5-5--9-10-10------|
A-----------------------------------2-2---5-5--9-10-10-------|
D-2(16x)-5(16x)-10(8x)-12(8x)13(8x)-2-2---5-5--9-10-10--10-5-|

e------------------------------------------------|
B------------------------------------------------|
G------------------------------------------------|
D-12----13-----2------5------10------12----13----|
A-12(8x)13(4x)-2(16x)-5(16x)-10(16x)-12(8x)13(8x-|
D1-2----13-----2------5------10------12----13----|


Chorus(2:54-3:37)
e-------------------------------------------------|
B-------------------------------------------------|
G-------------------------------------------------|
D-4----5-----5------10------12----13------2-------|
A-2(8x)2(8x)-5(16x)-10(16x)-12(8x)13(8x)--2(8x)---|
D-2----2-----5------10------12----13------2-------|

e------------------------------|
B------------------------------|
G------------------------------|
D-5--7------0----9----4----5~--|
A-5--7(16x)-0(8x)9(6x)4(6x)5~--|
D-5--7------0----9----4----5~--|

************************************

| /   slide up
| \   slide down
| h   hammer-on
| p   pull-off
| ~   vibrato
| +   harmonic
| x   Mute note
| b   Bend
| pb  Pre-bend
| br  Bend release
| pbr Pre-bend release
| brb Bend release bend

************************************
Tap to rate this tab
# A B C D E F G H I J K L M N O P Q R S T U V W X Y Z