Song name
# A B C D E F G H I J K L M N O P Q R S T U V W X Y Z

Pierce The Veil - Hold On Til May Acoustic tab

-----------------------------------------------------------------------------
              HOLD ON 'TIL MAY(ACOUSTIC) - Pierce The Veil
-----------------------------------------------------------------------------
Tabbed by: Nano511
E-mail: enano896@hotmail.com

The solo has not been tabbed out but assuming i am able to edit this tab i will add it 
in as soon as possible. Also, strumming has not been tabbed because it would take up too 
much space so please listen to the song to get the strumming


Verse 1 (0:00-0:28)
D#-0000------0000-------|
A#-0000------0000-------|
F#-9999------8888-------|
C#-7777------6666-------|
G#-7777------6666-------|
C#-7777------6666-------|


Chorus 1 (0:29-0:53)
D#---0-0-0-0-0-0-0----0-----0------0------------0000------0000-------|
A#----0-0-0-0-0-0-0---0--------0---0-----4--0---0000------0000-------|
F#--------------------9------------8------------9999---6--8888-------|
C#-67-----------------7------------6------------7777------6666-------|
G#--------------------7------------6------------7777------6666-------|
C#--------------------7------------6------------7777------6666-------|


Post Chorus(0:57-1:08)
Rhythm
D#-0000------0000-------|
A#-0000------0000-------|
F#-9999------8888-------|
C#-7777------6666-------|
G#-7777------6666-------|
C#-7777------6666-------|
Lead
D#---0-------0-------------------|
A#----0-------0------4-------4---|
F#--------------------4-------4--|
C#-67------67------46------46----|
G#-------------------------------|
C#-------------------------------|

Verse 2(same as verse 1 just listen to strumming)

PreChorus(1:33-1:36)
D#----0-0-0-0-0-0-0-0--|
A#-----0-0-0-0-0-0-0-0-|
F#---------------------|
C#--67-----------------|
G#---------------------|
C#---------------------|


Chorus(1:37-2:00)
*Note that I combined the lead with the chords so that one person could play it. Make 
sure to listen to the song for the strumming. It is not literally 1 chord per beat but it 
would take up too much space to write out the strumming.
D#-0000-0000--0000-0000------|
A#-0000-0000--0000-0000------|
F#-9899-9899--7888-7888------|  2X
C#-7799-7799--6666-6666------|
G#-7777-7777--6666-6666------|
C#-7777-7777--6666-6666------|


Bridge Pt 1(2:00-2:28)
D#--0-0-0-0-0-0-0-0-0-0-0-0-0-0-0-0----0--0--0--0--0--0--0--0-|
A#--0-0-0-0-0-0-0-0-0-0-0-0-0-0-0-0----0--0--0--0--0--0--0--0-|
F#------------------------------------------------------------|
C#------------------------------------------------------------|
G#---7-7-7-7-7-7-7-7-9-9-9-9-9-9-9-9-11-11-11-11-11-11-11-11--|
C#--2---------------6-------------9-7-------------------------|

D#-------------------|
A#----0---0----0---0-|
F#-13---9---11---8---|  x2
C#-------------------|
G#-11---7---9----6---|
C#-------------------|

Bridge Pt 2(2:29-3:45)
Rhythm
D#--0000-0000-0000-0000-|
A#--0000-0000-0000-0000-|
F#--4444-8888-9999-4444-| x3
C#--2222-6666-7777-2222-|
G#--2222-6666-7777-2222-|
C#--2222-6666-7777-2222-|
Lead
(havent had time to figure this out yet)


Chorus(3:46-4:42)
*Note that I combined the lead with the chords so one person could play it. Make sure to 
listen to the song for the strumming. It is not literally 1 chord per beat but it would 
take up too much space to write out the strumming
*Note that those are 11s not 1s
D#------------------0000--0000-0000---00-00----0--0000-|
A#------------------0000--0000-0000---00-00----0--0000-|
F#-9--8-------------9899--7888-7888---99-99----9--4444-|
C#-------9----------7799--6666-6666---77-77----7--2222-|
G#--------1111111---7777--6666-6666---77-77----7--2222-|
C#-7777777----------7777--6666-6666---77-77----7--2222-|

D#-0000------0000--0-------0-|
A#-0000------0000--0-------0-|
F#-888-------9999--4-------2-|
C#-6666------7777--2---2-1-2-|
G#-6666------7777--2-------2-|
C#-6666------7777--2-------2-|


************************************

| /   slide up
| \   slide down
| h   hammer-on
| p   pull-off
| ~   vibrato
| +   harmonic
| x   Mute note
| b   Bend
| pb  Pre-bend
| br  Bend release
| pbr Pre-bend release
| brb Bend release bend

************************************
Tap to rate this tab
 
# A B C D E F G H I J K L M N O P Q R S T U V W X Y Z