Song name
# A B C D E F G H I J K L M N O P Q R S T U V W X Y Z

Pierce The Veil - King For A Day tab

-------------------------------------------------------------------------------
                             King For A Day - Pierce The Veil
-------------------------------------------------------------------------------
Tabbed by: Tristen Jones
E-mail: tristen_bjones@yahoo.com

Absolutely loved this song the second I heard it, haven't seen any tabs I thought 
to be 100% correct, so here's my go at it! Tell me what you think needs changing 
and I'll take a look! (:

Tuning: Drop B - B  F# B  E  G# C#


Intro:

Guitar 1 - Plucked with Index finger and Thumb 
C#|---------------------------------------------------------------------------|
G#|---6-6-6-6-6-6-6-6-6-6-6-6-6-6-6-6--5-5-5-5-5-5-5-5-5-5-5-5-5-5-5-5--------|
E |---------------------------------------------------------------------------|
B |---------------------------------------------------------------------------|
F#|---5-5-5-5-5-5-5-5-5-5-5-5-5-5-5-5--4-4-4-4-4-4-4-4-4-4-4-4-4-4-4-4--------|
B |---------------------------------------------------------------------------|

Guitar 2
C#|--------------------------------------------------------------------------|
G#|-------------8--10--11--10--9--8-----10--9--8-----11--10------------------|
E |---7--9--10-----------------------9------------9--------------------------|
B |--------------------------------------------------------------------------|
F#|--------------------------------------------------------------------------|
B |--------------------------------------------------------------------------|


Verse:

Guitar 1 & 2 - Figure out the timing, Sorry x.x
C#|---------------------------------------------------------|
G#|---------------------------------------------------------|
E |----------------------------6---6-6------6---6-6---------|
B |--0---0-0------0---0-0------x---x-x------x---x-x---------|
F#|--0---0-0------0---0-0------4---4-4------4---4-4---------|
B |--0---0-0------0---0-0-----------------------------------|

C#|---------------------------------------------------------------|
G#|---------------------------------------------------------------|
E |----------------------------6-6-6-6-6-6-6-6-6-6-6-6-6-6-6-6/---|
B |--0---0-0------0---0-0------x-x-x-x-x-x-x-x-x-x-x-x-x-x-x-x/---|
F#|--0---0-0------0---0-0------4-4-4-4-4-4-4-4-4-4-4-4-4-4-4-4/---|
B |--0---0-0------0---0-0-----------------------------------------|
  
C#|-------------------------------------------------------|
G#|-------------------------------------------------------|
E |--14-14-14-14-14-14-14-14-14-14-14-14-14-14-14-14------|
B |--x--x--x--x--x--x--x--x--x--x--x--x--x--x--x--x-------|
F#|--12-12-12-12-12-12-12-12-12-12-12-12-12-12-12-12------|
B |-------------------------------------------------------|
   **Chord you're sliding up to**


Pre-Chorus:

Guitar 1 & 2:
C#|---------------------------------------------------------------------------|
G#|-10-10-10-10-10-10-10-10-10-10-10-10-10-10-10-10-10-10-10-10-10-10-10-10---|
E |-10-10-10-10-10-10-10-10-10-10-10-10-10-10-10-10-10-10-10-10-10-10-10-10---|
B |-8--8--8--8--8--8--8--8--8--8--8--8--8--8--8--8--8--8--8--8--8--8--8--8----|
F#|---------------------------------------------------------------------------|
B |---------------------------------------------------------------------------|

C#|---------------------------------------------------------------------------|
G#|-8--8--8--8--8--8--8--8--8--8--8--8--8--8--8--8--8--8--8--8--8--8--8--8----|
E |-9--9--9--9--9--9--9--9--9--9--9--9--9--9--9--9--9--9--9--9--9--9--9--9----|
B |-10-10-10-10-10-10-10-10-10-10-10-10-10-10-10-10-10-10-10-10-10-10-10-10---|
F#|---------------------------------------------------------------------------|
B |---------------------------------------------------------------------------|

C#|---------------------------------------------------------------------------|
G#|-10-10-10-10-10-10-10-10-10-10-10-10-11-11-11-11-11-11-10-10-10-10-10-10---|
E |-10-10-10-10-10-10-10-10-10-10-10-10-10-10-10-10-10-10-10-10-10-10-10-10---|
B |-8--8--8--8--8--8--8--8--8--8--8--8--8--8--8--8--8--8--8--8--8--8--8--8----|
F#|---------------------------------------------------------------------------|
B |---------------------------------------------------------------------------|

C#|------------------------------------------|
G#|-8--8--8--8--8--8--8--8--8--8--8--8--8----|
E |-9--9--9--9--9--9--9--9--9--9--9--9--9----|
B |-10-10-10-10-10-10-10-10-10-10-10-10-10---|
F#|------------------------------------------|
B |------------------------------------------|


Chorus:

Guitar 1:
C#|--------------------------------------------------------------------|
G#|--------------------------------------------------------------------|
E |-7-7-7-7-7-7-7-7-7-7-7-7-7-7-7-7------------------------------------|
B |-7-7-7-7-7-7-7-7-7-7-7-7-7-7-7-7--8-8-8-8-8-8-8-8-8-8-8-8-8-8-8-8---|
F#|-5-5-5-5-5-5-5-5-5-5-5-5-5-5-5-5--8-8-8-8-8-8-8-8-8-8-8-8-8-8-8-8---|
B |-0-0-0-0-0-0-0-0-0-0-0-0-0-0-0-0--8-8-8-8-8-8-8-8-8-8-8-8-8-8-8-8---|
  *The Open B is completely optional*
C#|-----------------5-5-5-5-6-6-6-6------------------------------------|
G#|-----------------x-x-x-x-x-x-x-x------------------------------------|
E |-----------------x-x-x-x-x-x-x-x------------------------------------|
B |-5-5-5-5-5-5-5-5-5-5-5-5-5-5-5-5--7-7-7-7-7-7-7-7-7-7-7-7-7-7-7-7---|
F#|-5-5-5-5-5-5-5-5-5-5-5-5-5-5-5-5--7-7-7-7-7-7-7-7-7-7-7-7-7-7-7-7---|
B |-5-5-5-5-5-5-5-5-5-5-5-5-5-5-5-5--7-7-7-7-7-7-7-7-7-7-7-7-7-7-7-7---|

Guitar 2:
C#|-------------------------------------------------------------------------------------------------|
G#|-15-15-15-15-15-15-15-15-15-15-15-15-15-15-15-15--11-11-11-11-11-11-11-11-11-11-11-11-11-11-11-11|
E |-14-14-14-14-14-14-14-14-14-14-14-14-14-14-14-14--10-10-10-10-10-10-10-10-10-10-10-10-10-10-10-10|
B |-12-12-12-12-12-12-12-12-12-12-12-12-12-12-12-12--8--8--8--8--8--8--8--8--8--8--8--8--8--8--8--8-|
F#|-------------------------------------------------------------------------------------------------|
B |-------------------------------------------------------------------------------------------------|

C#|-----------------5-5-5-5-6-6-6-6----------------------------------------------------|
G#|-8-8-8-8-8-8-8-8-8-8-8-8-8-8-8-8--10-10-10-10-10-10-10-10-10-10-10-10-10-10-10-10---|
E |-7-7-7-7-7-7-7-7-7-7-7-7-7-7-7-7--9--9--9--9--9--9--9--9--9--9--9--9--9--9--9--9----|
B |-5-5-5-5-5-5-5-5-5-5-5-5-5-5-5-5--7--7--7--7--7--7--7--7--7--7--7--7--7--7--7--7----|
F#|------------------------------------------------------------------------------------|
B |------------------------------------------------------------------------------------|


Post Chorus:

Guitar 1:
C#|----------------------------------------------------------------|
G#|----------------------------------------------------------------|
E |----------------------------------------------------------------|
B |----------------------------------------------------------------|
F#|---5h8-5h8-5h8-5h8-5h8-5h7-5h7----5h8-5h8-5h8-5h8-5h8-5h7-5h7---|
B |-0------------------------------0-------------------------------|
     
Guitar 2 joins Guitar 1 now:
C#|----------------------------------------------------------------|
G#|----------------------------------------------------------------|
E |----------------------------------------------------------------|
B |----------------------------------------------------------------|
F#|---4h7-4h7-4h7-4h7-4h7-4h7-4h7----4h7-4h7-4h7-4h7-4h7-4h7-4h7---|
B |-0------------------------------0-------------------------------|


Verse 2:

-Bass Break-

Guitar 1:
C#|----------------------------------------------------------------|
G#|----------------------------------------------------------------|
E |----------------------------------------------------------------|
B |----------------------------------------------------------------|
F#|---5h8-5h8-5h8-5h8-5h8-5h7-5h7----5h8-5h8-5h8-5h8-5h8-5h7-5h7---|
B |-0------------------------------0-------------------------------|
     
C#|----------------------------------------------------------------|
G#|----------------------------------------------------------------|
E |----------------------------------------------------------------|
B |----------------------------------------------------------------|
F#|---4h7-4h7-4h7-4h7-4h7-4h7-4h7----4h7-4h7-4h7-4h7-4h7-4h7-4h7---|
B |-0------------------------------0-------------------------------|

Guitar 2:
C#|----------------------------------------------------------------|
G#|----------------------------------------------------------------|
E |----------------------------------------------------------------|
B |----------------------------------------------------------------|
F#|---5h8-5h8-5h8-5h8-5h8-5h7-5h7----5h8-5h8-5h8-5h8-5h8-5h7-5h7---|
B |-0------------------------------0-------------------------------|

C#|----------------------------------------------------------------|
G#|----------------------------------------------------------------|
E |----------------------------------------------------------------|
B |---2h5-2h5-2h5-2h5-2h5-2h5-2h5----2h5-2h5-2h5-2h5-2h5-2h5-2h5---|
F#|----------------------------------------------------------------|
B |-0------------------------------0-------------------------------|


Pre-Chorus:

Guitar 1 & 2:
C#|---------------------------------------------------------------------------|
G#|-10-10-10-10-10-10-10-10-10-10-10-10-10-10-10-10-10-10-10-10-10-10-10-10---|
E |-10-10-10-10-10-10-10-10-10-10-10-10-10-10-10-10-10-10-10-10-10-10-10-10---|
B |-8--8--8--8--8--8--8--8--8--8--8--8--8--8--8--8--8--8--8--8--8--8--8--8----|
F#|---------------------------------------------------------------------------|
B |---------------------------------------------------------------------------|

C#|---------------------------------------------------------------------------|
G#|-8--8--8--8--8--8--8--8--8--8--8--8--8--8--8--8--8--8--8--8--8--8--8--8----|
E |-9--9--9--9--9--9--9--9--9--9--9--9--9--9--9--9--9--9--9--9--9--9--9--9----|
B |-10-10-10-10-10-10-10-10-10-10-10-10-10-10-10-10-10-10-10-10-10-10-10-10---|
F#|---------------------------------------------------------------------------|
B |---------------------------------------------------------------------------|

C#|---------------------------------------------------------------------------|
G#|-10-10-10-10-10-10-10-10-10-10-10-10-10-10-10-10-10-10-10-10-10-10-10-10---|
E |-10-10-10-10-10-10-10-10-10-10-10-10-10-10-10-10-10-10-10-10-10-10-10-10---|
B |-8--8--8--8--8--8--8--8--8--8--8--8--8--8--8--8--8--8--8--8--8--8--8--8----|
F#|---------------------------------------------------------------------------|
B |---------------------------------------------------------------------------|

C#|----------------------------------------------------------------------|
G#|-8--8--8--8--8--8--8--8--8--8--8--8--8--8--8--8--8--8--8--8--8--------|
E |-9--9--9--9--9--9--9--9--9--9--9--9--9--9--9--9--9--9--9--9--9--------|
B |-10-10-10-10-10-10-10-10-10-10-10-10-10-10-10-10-10-10-10-10-10-12/---|
F#|----------------------------------------------------------------12/---|
B |----------------------------------------------------------------12/---|


Chorus:

Guitar 1:
C#|--------------------------------------------------------------------|
G#|--------------------------------------------------------------------|
E |-7-7-7-7-7-7-7-7-7-7-7-7-7-7-7-7------------------------------------|
B |-7-7-7-7-7-7-7-7-7-7-7-7-7-7-7-7--8-8-8-8-8-8-8-8-8-8-8-8-8-8-8-8---|
F#|-5-5-5-5-5-5-5-5-5-5-5-5-5-5-5-5--8-8-8-8-8-8-8-8-8-8-8-8-8-8-8-8---|
B |-0-0-0-0-0-0-0-0-0-0-0-0-0-0-0-0--8-8-8-8-8-8-8-8-8-8-8-8-8-8-8-8---|
  *The Open B is completely optional*
C#|-----------------5-5-5-5-6-6-6-6------------------------------------|
G#|-----------------x-x-x-x-x-x-x-x------------------------------------|
E |-----------------x-x-x-x-x-x-x-x------------------------------------|
B |-5-5-5-5-5-5-5-5-5-5-5-5-5-5-5-5--7-7-7-7-7-7-7-7-7-7-7-7-7-7-7-7---|
F#|-5-5-5-5-5-5-5-5-5-5-5-5-5-5-5-5--7-7-7-7-7-7-7-7-7-7-7-7-7-7-7-7---|
B |-5-5-5-5-5-5-5-5-5-5-5-5-5-5-5-5--7-7-7-7-7-7-7-7-7-7-7-7-7-7-7-7---|

C#|--------------------------------------------------------------------|
G#|--------------------------------------------------------------------|
E |-7-7-7-7-7-7-7-7-7-7-7-7-7-7-7-7------------------------------------|
B |-7-7-7-7-7-7-7-7-7-7-7-7-7-7-7-7--8-8-8-8-8-8-8-8-8-8-8-8-8-8-8-8---|
F#|-5-5-5-5-5-5-5-5-5-5-5-5-5-5-5-5--8-8-8-8-8-8-8-8-8-8-8-8-8-8-8-8---|
B |-0-0-0-0-0-0-0-0-0-0-0-0-0-0-0-0--8-8-8-8-8-8-8-8-8-8-8-8-8-8-8-8---|

C#|-----------------5-5-5-5-6-6-6-6----------------------|
G#|-----------------x-x-x-x-x-x-x-x----------------------|
E |-----------------x-x-x-x-x-x-x-x----------------------|
B |-5-5-5-5-5-5-5-5-5-5-5-5-5-5-5-5--7-7-7-7-7-7-7-7-7---|
F#|-5-5-5-5-5-5-5-5-5-5-5-5-5-5-5-5--7-7-7-7-7-7-7-7-7---|
B |-5-5-5-5-5-5-5-5-5-5-5-5-5-5-5-5--7-7-7-7-7-7-7-7-7---|

Guitar 2:
C#|--------------------------------------------------------------------------------------------------|
G#|-15-15-15-15-15-15-15-15-15-15-15-15-15-15-15-15--11-11-11-11-11-11-11-11-11-11-11-11-11-11-11-11-|
E |-14-14-14-14-14-14-14-14-14-14-14-14-14-14-14-14--10-10-10-10-10-10-10-10-10-10-10-10-10-10-10-10-|
B |-12-12-12-12-12-12-12-12-12-12-12-12-12-12-12-12--8--8--8--8--8--8--8--8--8--8--8--8--8--8--8--8--|
F#|--------------------------------------------------------------------------------------------------|
B |--------------------------------------------------------------------------------------------------|

C#|-----------------5-5-5-5-6-6-6-6----------------------------------------------------|
G#|-8-8-8-8-8-8-8-8-8-8-8-8-8-8-8-8--10-10-10-10-10-10-10-10-10-10-10-10-10-10-10-10---|
E |-7-7-7-7-7-7-7-7-7-7-7-7-7-7-7-7--9--9--9--9--9--9--9--9--9--9--9--9--9--9--9--9----|
B |-5-5-5-5-5-5-5-5-5-5-5-5-5-5-5-5--7--7--7--7--7--7--7--7--7--7--7--7--7--7--7--7----|
F#|------------------------------------------------------------------------------------|
B |------------------------------------------------------------------------------------|

C#|--------------------------------------------------------------------------------------------------|
G#|-15-15-15-15-15-15-15-15-15-15-15-15-15-15-15-15--11-11-11-11-11-11-11-11-11-11-11-11-11-11-11-11-|
E |-14-14-14-14-14-14-14-14-14-14-14-14-14-14-14-14--10-10-10-10-10-10-10-10-10-10-10-10-10-10-10-10-|
B |-12-12-12-12-12-12-12-12-12-12-12-12-12-12-12-12--8--8--8--8--8--8--8--8--8--8--8--8--8--8--8--8--|
F#|--------------------------------------------------------------------------------------------------|
B |--------------------------------------------------------------------------------------------------|

C#|-----------------5-5-5-5-6-6-6-6-------------------------------|
G#|-8-8-8-8-8-8-8-8-8-8-8-8-8-8-8-8--10-10-10-10-10-10-10-10-10---|
E |-7-7-7-7-7-7-7-7-7-7-7-7-7-7-7-7--9--9--9--9--9--9--9--9--9----|
B |-5-5-5-5-5-5-5-5-5-5-5-5-5-5-5-5--7--7--7--7--7--7--7--7--7----|
F#|---------------------------------------------------------------|
B |---------------------------------------------------------------|


Pre-Breakdown:

Guitar 1:
C#|-----------------------------------------------------------|
G#|-----------------------------------------------------------|
E |-----------------------------------------------------------|
B |-0~-------------------------------------------/pickslide---|
F#|-0~-------------------------------------------/pickslide---|
B |-0~-------------------------------------------/pickslide---|

Guitar 2:
C#|-----------------------------------------------------------|
G#|-----------------------------------------------------------|
E |-----------------------------------------------------------|
B |-0~-------------------------0~----------------/pickslide---|
F#|-0~-------------------------0~----------------/pickslide---|
B |-0~-------------------------0~----------------/pickslide---|

Guitar 1 & 2:
C#|---------------------------------------------------------------------------------------------|
G#|---------------------------------------------------------------------------------------------|
E |-14-14-14-14-14-14-10-10-10-15-15-15-14-14-14-14-14-14-10-10-10-14-14-14-13-13-13-13-13-13---|
B |-x--x--x--x--x--x--x--x--x--x--x--x--x--x--x--x--x--x--x--x--x--x--x--x--x--x--x--x--x--x----|
F#|-12-12-12-12-12-12-8--8--8--13-13-13-12-12-12-12-12-12-8--8--8--12-12-12-11-11-11-11-11-11---|
B |---------------------------------------------------------------------------------------------|
Cont.
C#|---------------------------------------------------|
G#|---------------------------------------------------|
E |-9-9-9-14-14-14-13-13-13-13-13-13-9-9-9-13-13-13---|
B |-x-x-x-x--x--x--x--x--x--x--x--x--x-x-x-x--x--x----|
F#|-7-7-7-12-12-12-11-11-11-11-11-11-7-7-7-11-11-11---|
B |---------------------------------------------------|
Cont.
C#|---------------------------------------------------------------------------|
G#|---------------------------------------------------------------------------|
E |-14-14-14-14-14-14-10-10-10-15-15-15-14-14-14-14-14-14-10-10-10-14-14-14---|
B |-x--x--x--x--x--x--x--x--x--x--x--x--x--x--x--x--x--x--x--x--x--x--x--x----|
F#|-12-12-12-12-12-12-8--8--8--13-13-13-12-12-12-12-12-12-8--8--8--12-12-12---|
B |---------------------------------------------------------------------------|

C#|--------------------------------------------|
G#|--------------------------------------------|
E |-13-13-13-13-13-13-13-13-13-13-13-13-13-----|
B |-x--x--x--x--x--x--x--x--x--x--x--x--x------|
F#|-11-11-11-11-11-11-11-11-11-11-11-11-11-----|
B |--------------------------------------------|


Breakdown:

Guitars 1 & 2:
C#|----------------------------------------------------------------------------------------------|
G#|----------------------------------------------------------------------------------------------|
E |----------------------------------------------------------------------------------------------|  
B |----------------------------------------------------------------------------------------------| x2
F#|-0--------------5---7---8---------------5---7---8--6--------------5---7---8---6666-6-8---7*---|
B |-0--0-0-0-0-0-0---0---0-----0-0-0-0-0-0---0---0----6--6-6-6-6-6-6---6---6-----6666-6---6------|
   PM: * * * * * *   *   *     * * * * * *   *   *       * * * * * *   *   *     **** *   *

C#|----------------------------------------------------------------|\
G#|----------------------------------------------------------------| \
E |----------------------------------------------------------------|  \
B |----------------------------------------------------------------|   \
F#|-0-------------5p0-7p0-8p0-7p0-0-------------5p0-7p0-8p0-7p0----|    \
B |-0-0-0-0-0-0-0-----------------0-0-0-0-0-0-0--------------------|     \
  PM: * * * * * *                   * * * * * *                           |
cont                                                                      | x2
C#|----------------------------------------------------------------|     /
G#|----------------------------------------------------------------|    /
E |----------------------------------------------------------------|   /
B |----------------------------------------------------------------|  /
F#|-6-------------5p0-7p0-8p0-7p0-6-------------5p0-7p0-8p0-7p0----| /
B |-6-6-6-6-6-6-6-----------------6-6-6-6-6-6-6--------------------|/
  PM: * * * * * *                   * * * * * *

Guitar 3, *Tremolo Picked* (Enters at 2:51): Figure out timing, sorry again x.x
C#|-17-13-18-17-13-17-16-12-17-16-12-16---|
G#|---------------------------------------|
E |---------------------------------------| x3
B |---------------------------------------|
F#|---------------------------------------|
B |---------------------------------------|


Final Chorus:

Guitar 1 & 2
C#|----------------------------------------------------|
G#|----------------------------------------------------|
E |-7-7-7-7-7------------------------------------------|
B |-7-7-7-7-7----8-8-8-8-8----5-5-5-5-5----7-7-7-7-7---|
F#|-5-5-5-5-5----8-8-8-8-8----5-5-5-5-5----7-7-7-7-7---|
B |-0-0-0-0-0----8-8-8-8-8----5-5-5-5-5----7-7-7-7-7---|

Guitar 1:
C#|--------------------------------------------------------------------|
G#|--------------------------------------------------------------------|
E |-7-7-7-7-7-7-7-7-7-7-7-7-7-7-7-7------------------------------------|
B |-7-7-7-7-7-7-7-7-7-7-7-7-7-7-7-7--8-8-8-8-8-8-8-8-8-8-8-8-8-8-8-8---|
F#|-5-5-5-5-5-5-5-5-5-5-5-5-5-5-5-5--8-8-8-8-8-8-8-8-8-8-8-8-8-8-8-8---|
B |-0-0-0-0-0-0-0-0-0-0-0-0-0-0-0-0--8-8-8-8-8-8-8-8-8-8-8-8-8-8-8-8---|

C#|-----------------5-5-5-5-6-6-6-6------------------------------------|
G#|-----------------x-x-x-x-x-x-x-x------------------------------------|
E |-----------------x-x-x-x-x-x-x-x------------------------------------|
B |-5-5-5-5-5-5-5-5-5-5-5-5-5-5-5-5--7-7-7-7-7-7-7-7-7-7-7-7-7-7-7-7---|
F#|-5-5-5-5-5-5-5-5-5-5-5-5-5-5-5-5--7-7-7-7-7-7-7-7-7-7-7-7-7-7-7-7---|
B |-5-5-5-5-5-5-5-5-5-5-5-5-5-5-5-5--7-7-7-7-7-7-7-7-7-7-7-7-7-7-7-7---|

C#|--------------------------------------------------------------------|
G#|--------------------------------------------------------------------|
E |-7-7-7-7-7-7-7-7-7-7-7-7-7-7-7-7------------------------------------|
B |-7-7-7-7-7-7-7-7-7-7-7-7-7-7-7-7--8-8-8-8-8-8-8-8-8-8-8-8-8-8-8-8---|
F#|-5-5-5-5-5-5-5-5-5-5-5-5-5-5-5-5--8-8-8-8-8-8-8-8-8-8-8-8-8-8-8-8---|
B |-0-0-0-0-0-0-0-0-0-0-0-0-0-0-0-0--8-8-8-8-8-8-8-8-8-8-8-8-8-8-8-8---|

C#|-----------------5-5-5-5-6-6-6-6----------------------|
G#|-----------------x-x-x-x-x-x-x-x----------------------|
E |-----------------x-x-x-x-x-x-x-x----------------------|
B |-5-5-5-5-5-5-5-5-5-5-5-5-5-5-5-5--7-7-7-7-7-7-7-7-7---|
F#|-5-5-5-5-5-5-5-5-5-5-5-5-5-5-5-5--7-7-7-7-7-7-7-7-7---|
B |-5-5-5-5-5-5-5-5-5-5-5-5-5-5-5-5--7-7-7-7-7-7-7-7-7---|

Guitar 2:
C#|--------------------------------------------------------------------------------------------------|
G#|-15-15-15-15-15-15-15-15-15-15-15-15-15-15-15-15--11-11-11-11-11-11-11-11-11-11-11-11-11-11-11-11-|
E |-14-14-14-14-14-14-14-14-14-14-14-14-14-14-14-14--10-10-10-10-10-10-10-10-10-10-10-10-10-10-10-10-|
B |-12-12-12-12-12-12-12-12-12-12-12-12-12-12-12-12--8--8--8--8--8--8--8--8--8--8--8--8--8--8--8--8--|
F#|--------------------------------------------------------------------------------------------------|
B |--------------------------------------------------------------------------------------------------|

C#|-----------------5-5-5-5-6-6-6-6----------------------------------------------------|
G#|-8-8-8-8-8-8-8-8-8-8-8-8-8-8-8-8--10-10-10-10-10-10-10-10-10-10-10-10-10-10-10-10---|
E |-7-7-7-7-7-7-7-7-7-7-7-7-7-7-7-7--9--9--9--9--9--9--9--9--9--9--9--9--9--9--9--9----|
B |-5-5-5-5-5-5-5-5-5-5-5-5-5-5-5-5--7--7--7--7--7--7--7--7--7--7--7--7--7--7--7--7----|
F#|------------------------------------------------------------------------------------|
B |------------------------------------------------------------------------------------|

C#|--------------------------------------------------------------------------------------------------|
G#|-15-15-15-15-15-15-15-15-15-15-15-15-15-15-15-15--11-11-11-11-11-11-11-11-11-11-11-11-11-11-11-11-|
E |-14-14-14-14-14-14-14-14-14-14-14-14-14-14-14-14--10-10-10-10-10-10-10-10-10-10-10-10-10-10-10-10-|
B |-12-12-12-12-12-12-12-12-12-12-12-12-12-12-12-12--8--8--8--8--8--8--8--8--8--8--8--8--8--8--8--8--|
F#|--------------------------------------------------------------------------------------------------|
B |--------------------------------------------------------------------------------------------------|

C#|-----------------5-5-5-5-6-6-6-6-------------------------------|
G#|-8-8-8-8-8-8-8-8-8-8-8-8-8-8-8-8--10-10-10-10-10-10-10-10-10---|
E |-7-7-7-7-7-7-7-7-7-7-7-7-7-7-7-7--9--9--9--9--9--9--9--9--9----|
B |-5-5-5-5-5-5-5-5-5-5-5-5-5-5-5-5--7--7--7--7--7--7--7--7--7----|
F#|---------------------------------------------------------------|
B |---------------------------------------------------------------|

End on:

C#|-------------|
G#|-------------|
E |-7-7-7-7-7---|
B |-7-7-7-7-7---|
F#|-5-5-5-5-5---|
B |-0-0-0-0-0---|


...shit.



************************************

| /   slide up
| \   slide down
| h   hammer-on
| p   pull-off
| ~   hold out
| +   harmonic
| x   Mute note
| b   Bend
| pb  Pre-bend
| br  Bend release
| pbr Pre-bend release
| brb Bend release bend

************************************
Tap to rate this tab
# A B C D E F G H I J K L M N O P Q R S T U V W X Y Z