Song name
# A B C D E F G H I J K L M N O P Q R S T U V W X Y Z

Pierce The Veil - May These Noises Startle You In Your Sleep Tonight tab

-------------------------------------------------------------------------------
                 May These Noises Startle You In Your Sleep Tonight - Pierce The Veil
 Album: Collide With the Sky
-------------------------------------------------------------------------------

Tuning: Standard

Guitar I:

e|------------------------------------------------------------------------------|
B|--9--7-----10--9--7--------------9--10--12--9--10--9--7------7--9--10--9--7---|
G|--------6------------6-----------------------------------9--------------------|
D|------------------------10--9------------------------------9------------------|
A|-------------------------------9----------------------------------------------|
E|------------------------------------------------------------------------------|

e----------7-9-10-12-10-9-7---------------------------------|
B-----9-10------------------10-9-10-9-7---------------------|
G-----------------------------------------------------------|       (3x)
D-----------------------------------------------------------|
A-----------------------------------------------------------|
E-----------------------------------------------------------|

Guitar II:

      F#5         B5           E5            Ab5         F#5
e|------------------------------------------------------------------|
B|------------------------------------------------------------------|
G|-------(8x)------4---(8x)----------(6x)----------(2x)------(8x)---|    (3x)
D|----4------------4------------2-------------6-----------4---------|
A|----4------------2------------2-------------6-----------4---------|
E|----2---------------------------------------4-----------2---------|






"I'm the killer who burned your home...."



F#5     A5/Ab5/F#5   C#5         F#5                    E5                    F#5



"This is the street youth rising up"







**That's basically the whole song. Listen to the record for the strumming pattern for 
the breakdown towards the end.**
Tap to rate this tab
 
# A B C D E F G H I J K L M N O P Q R S T U V W X Y Z