Song name
# A B C D E F G H I J K L M N O P Q R S T U V W X Y Z

Pierce The Veil - Hell Above tab

----------------------------------------------------------------------------
                              Hell Above
                            Pierce the Veil
----------------------------------------------------------------------------

Important Note: This song is actually in Drop B, but in order to make it similar for
some people, I put it in Drop C# so that 1. They won’t have to change tuning if playing
this right after May These Noises Startle You in Your Sleep and 2. So that open notes 
will be easier to play. Enjoy!

Username: dkm817 (same on X box live)
Youtube Cover: http://www.youtube.com/watch?v=4kLSZWQAbaI
Email: guitardrums@rockfan.com

Guitar 1 Rhythmic (C# G# C# F# A# D#)
Guitar 2 Lead     (C# G# C# F# A# D#)

Tab Guide...
===================================================================
(end of measures)

===================================================================
===================================================================
(end of parts)

===================================================================
===================================================================
===================================================================
(end of song)

(If there is a “continued” it is because the numbers could not
fit on 1 line or connecting times played.)


Intro

Guitar 1
D#-----------------------------------------------------------------|
A#-----------------------------------------------------------------|
F#-----------------------------------------------------------------|
C#-5-5-5-5-5-5-5-5-5-5-5-5-5-5-5-5-5-5-5-5-5-5-5-5-5-5-5-5-5-5-5-5-|
G#-5-5-5-5-5-5-5-5-5-5-5-5-5-5-5-5-5-5-5-5-5-5-5-5-5-5-5-5-5-5-5-5-|
C#-5-5-5-5-5-5-5-5-5-5-5-5-5-5-5-5-5-5-5-5-5-5-5-5-5-5-5-5-5-5-5-5-|

Guitar 2
D#-------------------------------------------------|
A#----------15-15-13-13-11-11-10-10----10----10-11-|
F#-12-12-12-------------------------12----12-------|
C#-------------------------------------------------|
G#-------------------------------------------------|
C#-------------------------------------------------|


Guitar 2 continued
D#-------------------------------------------------|
A#----------15-15-13-13-11-11-10-10----10----------|
F#-12-12-12-------------------------12----12-10-10-|
C#-------------------------------------------------|
G#-------------------------------------------------|
C#-------------------------------------------------|


===================================================================

Guitar 1
D#-----------------------------------------------------------------|
A#-----------------------------------------------------------------|
F#-3-3-3-3-3-3-3-3-3-3-3-3-3-3-3-3-5-5-5-5-5-5-5-5-2-2-2-2-2-2-2-2-|
C#-x-x-x-x-x-x-x-x-x-x-x-x-x-x-x-x-x-x-x-x-x-x-x-x-x-x-x-x-x-x-x-x-|
G#-1-1-1-1-1-1-1-1-1-1-1-1-1-1-1-1-3-3-3-3-3-3-3-3-0-0-0-0-0-0-0-0-|
C#-----------------------------------------------------------------|

Guitar 2
D#-------------------------------------------------|
A#----------15-15-13-13-11-11-10-10----10----10-11-|
F#-12-12-12-------------------------12----12-------|
C#-------------------------------------------------|
G#-------------------------------------------------|
C#-------------------------------------------------|


Guitar 2 continued
D#-------------------------------------------------|
A#----------15-15-13-13-11-11-10-10----10----------|
F#-12-12-12-------------------------12----12-10-10-|
C#-------------------------------------------------|
G#-------------------------------------------------|
C#-------------------------------------------------|


===================================================================

Guitar 1
D#-----------------------------------------------------------------|
A#-----------------------------------------------------------------|
F#-2h3p2p0-2h3p2p0-2h3p2p0-2h3p2p0-8-8-7-7-5-5-3-3-2-2-3-3-2-2-----|
C#-------------------------------------------------------------4-4-|
G#-----------------------------------------------------------------|
C#-----------------------------------------------------------------|

Guitar 2
D#-------------------------------------------------|
A#-------------------------------------------------|
F#-12-12-12-12-14-14-14-14-15-15-15-15-17-17-17-17-|
C#-------------------------------------------------|
G#-------------------------------------------------|
C#-------------------------------------------------|

Guitar 2
D#-----------------------------------------------|
A#-----------------------------------------------|
F#-17-17-15-15-14-14-12-12-11-11-----------------|
C#-------------------------------12-12-10-10-8-8-|
G#-----------------------------------------------|
C#-----------------------------------------------|

===================================================================
===================================================================


Verse 1

Guitar 1
D#-----------------------------------------------------------------|
A#-4---4---4---4---4---4---4---4---4---4---4---4---4---4---4---4---|
F#-7---7---7---7---7---7---7---7---7---7---7---7---7---7---7---7---|
C#-----------------------------------------------------------------|
G#-----------------------------------------------------------------|
C#-----------------------------------------------------------------|

Guitar 2
D#------------------------------------------------------------------|
A#------------------------------------------------------------------|
F#----14-15---14-15---14-15---14-15---14-15---14-15---14-15---14-15-|
C#-12------12------12------12------12------12------12------12-------|
G#------------------------------------------------------------------|
C#------------------------------------------------------------------|

===================================================================

Guitar 1
D#-----------------------------------------------------------------|
A#-4---4---4---4---4---4---4---4---4---4---4---4---4---4---4---4---|
F#-7---7---7---7---7---7---7---7---7---7---7---7---7---7---7---7---|
C#-----------------------------------------------------------------|
G#-----------------------------------------------------------------|
C#-----------------------------------------------------------------|

Guitar 2
D#------------------------------------------------------------------|
A#------------------------------------------------------------------|
F#----12-14---12-14---12-14---12-14---12-14---12-14---12-14---12-14-|
C#-10------10------10------10------10------10------10------10-------|
G#------------------------------------------------------------------|
C#------------------------------------------------------------------|

===================================================================

Guitar 1
D#-----------------------------------------------------------------|
A#-4---4---4---4---4---4---4---4---4---4---4---4---4---4---4---4---|
F#-7---7---7---7---7---7---7---7---7---7---7---7---7---7---7---7---|
C#-----------------------------------------------------------------|
G#-----------------------------------------------------------------|
C#-----------------------------------------------------------------|

Guitar 2
D#------------------------------------------------------------------|
A#------------------------------------------------------------------|
F#----15-17---15-17---15-17---15-17---15-17---15-17---15-17---15-17-|
C#-13------13------13------13------13------13------13------13-------|
G#------------------------------------------------------------------|
C#------------------------------------------------------------------|

===================================================================

Guitar 1
D#-----------------------------------------------------------------|
A#-4---4---4---4---4---4---4---4-----------------------------------|
F#-7---7---7---7---7---7---7---7-----------------------------------|
C#---------------------------------0~~~~~~~~~~~~~~-ps\~~~~~~~~~~~~-|
G#---------------------------------0~~~~~~~~~~~~~~-ps\~~~~~~~~~~~~-|
C#---------------------------------0~~~~~~~~~~~~~~-ps\~~~~~~~~~~~~-|

Guitar 2
D#-----------------------------------------------------------------|
A#-----------------------------------------------------------------|
F#-----------------------------------------------------------------|
C#---------------------------------0~~~~~~~~~~~~~~-ps\~~~~~~~~~~~~-|
G#---------------------------------0~~~~~~~~~~~~~~-ps\~~~~~~~~~~~~-|
C#---------------------------------0~~~~~~~~~~~~~~-ps\~~~~~~~~~~~~-|

===================================================================
===================================================================


Pre Chorus 1

Guitar 1
D#-----------------------------------------------------------------|
A#-----------------------------------------------------------------|
F#-----------------------------------------------------------------|
C#-5-5-5-5-5-5-5-5-5-5-5-5-5-5-5-5-5-5-5-5-5-5-5-5-5-5-5-5-5-5-5-5-|
G#-5-5-5-5-5-5-5-5-5-5-5-5-5-5-5-5-5-5-5-5-5-5-5-5-5-5-5-5-5-5-5-5-|
C#-5-5-5-5-5-5-5-5-5-5-5-5-5-5-5-5-5-5-5-5-5-5-5-5-5-5-5-5-5-5-5-5-|

Guitar 2
D#-----------------------------------------------------------------|
A#-----------------------------------------------------------------|
F#-7-7-7-7-7-7-7-7-7-7-7-7-7-7-7-7-7-7-7-7-7-7-7-7-7-7-7-7-7-7-7-7-|
C#-x-x-x-x-x-x-x-x-x-x-x-x-x-x-x-x-x-x-x-x-x-x-x-x-x-x-x-x-x-x-x-x-|
G#-5-5-5-5-5-5-5-5-5-5-5-5-5-5-5-5-5-5-5-5-5-5-5-5-5-5-5-5-5-5-5-5-|
C#-----------------------------------------------------------------|

===================================================================

Guitar 1
D#---------------------------------------------------------|
A#---------------------------------------------------------|
F#---------------------------------8-7-5-7-5-3-5-3-2-3-2-0-|
C#-0-0-0-0-0-0-0-0-0-0-0-0-0-0-0-0-------------------------|
G#-0-0-0-0-0-0-0-0-0-0-0-0-0-0-0-0-------------------------|
C#-0-0-0-0-0-0-0-0-0-0-0-0-0-0-0-0-------------------------|

Guitar 2
D#---------------------------------------------------------------|
A#---------------------------------13-11-10-11-10-8-10-8-7-8-7---|
F#-7-7-7-7-7-7-7-7-7-7-7-7-7-7-7-7-----------------------------7-|
C#-x-x-x-x-x-x-x-x-x-x-x-x-x-x-x-x-------------------------------|
G#-5-5-5-5-5-5-5-5-5-5-5-5-5-5-5-5-------------------------------|
C#---------------------------------------------------------------|

===================================================================

Guitar 1
D#-----------------------------------------------------------------|
A#-----------------------------------------------------------------|
F#-----------------------------------------------------------------|
C#-1-1-1-1---------1-1-----1-1-----1-1-1-1---------1-1-----1-1-----|
G#-1-1-1-1---------1-1-----1-1-----1-1-1-1---------1-1-----1-1-----|
C#-1-1-1-1---------1-1-----1-1-----1-1-1-1---------1-1-----1-1-----|

Guitar 2
D#-----------------------------------------------------------------|
A#-----------------------------------------------------------------|
F#-8-8-8-8---------8-8-----8-8-----8-8-8-8---------8-8-----8-8-----|
C#-x-x-x-x---------x-x-----x-x-----x-x-x-x---------x-x-----x-x-----|
G#-6-6-6-6---------6-6-----6-6-----6-6-6-6---------6-6-----6-6-----|
C#-----------------------------------------------------------------|

===================================================================

Guitar 1
D#-----------------------------------------------------------------|
A#-----------------------------------------------------------------|
F#-----------------------------------------------------------------|
C#-0-0-0-0---------0-0-----0-0-----0~~~~~~~~~~~~~~-0~~~~~~~~~~~~~~-|
G#-0-0-0-0---------0-0-----0-0-----0~~~~~~~~~~~~~~-0~~~~~~~~~~~~~~-|
C#-0-0-0-0---------0-0-----0-0-----0~~~~~~~~~~~~~~-0~~~~~~~~~~~~~~-|

Guitar 2
D#-----------------------------------------------------------------|
A#-----------------------------------------------------------------|
F#-7-7-7-7---------7-7-----7-7-----7~~~~~~~~~~~~~~-11~~~~~~~~~~~~~-|
C#-x-x-x-x---------x-x-----x-x-----x---------------x---------------|
G#-5-5-5-5---------5-5-----5-5-----5~~~~~~~~~~~~~~-9~~~~~~~~~~~~~~-|
C#-----------------------------------------------------------------|

===================================================================
===================================================================


Chorus

Guitar 1
D#-----------------------------------------------------------------|
A#-----------------------------------------------------------------|
F#-----------------------------------------------------------------|
C#-5---5---5---5---5---5---5---5---1---1---1---1---1---1---1---1---|
G#-5---5---5---5---5---5---5---5---1---1---1---1---1---1---1---1---|
C#-5---5---5---5---5---5---5---5---1---1---1---1---1---1---1---1---|

Guitar 2
D#-----------------------------------------------------------------|
A#-11--11--11--11--11--11--11--11--8---8---8---8---8---8---8---8---|
F#-x---x---x---x---x---x---x---x---x---x---x---x---x---x---x---x---|
C#-8---8---8---8---8---8---8---8---5---5---5---5---5---5---5---5---|
G#-----------------------------------------------------------------|
C#-----------------------------------------------------------------|

===================================================================

Guitar 1
D#-----------------------------------------------------------------|
A#-----------------------------------------------------------------|
F#-5---5---5---5---5---5---5---5-----------------------------------|
C#-5---5---5---5---5---5---5---5---0---0---0---0---0---0---0---0---|
G#-3---3---3---3---3---3---3---3---0---0---0---0---0---0---0---0---|
C#---------------------------------0---0---0---0---0---0---0---0---|

Guitar 2
D#-----------------------------------------------------------------|
A#-----------------------------------------------------------------|
F#-8---8---8---8---8---8---8---8---7---7---5---5---3---3-----------|
C#-x---x---x---x---x---x---x---x---x---x---x---x---x---x---x-x-x-x-|
G#-6---6---6---6---6---6---6---6---5---5---3---3---1---1---x-x-x-x-|
C#---------------------------------------------------------x-x-x-x-|

===================================================================

Guitar 1
D#-----------------------------------------------------------------|
A#-----------------------------------------------------------------|
F#-----------------------------------------------------------------|
C#-5---5---5---5---5---5---5---5---1---1---1---1---1---1---1---1---|
G#-5---5---5---5---5---5---5---5---1---1---1---1---1---1---1---1---|
C#-5---5---5---5---5---5---5---5---1---1---1---1---1---1---1---1---|

Guitar 2
D#-----------------------------------------------------------------|
A#-11--11--11--11--11--11--11--11--8---8---8---8---8---8---8---8---|
F#-x---x---x---x---x---x---x---x---x---x---x---x---x---x---x---x---|
C#-8---8---8---8---8---8---8---8---5---5---5---5---5---5---5---5---|
G#-----------------------------------------------------------------|
C#-----------------------------------------------------------------|

===================================================================

Guitar 1
D#-----------------------------------------------------------------|
A#-----------------------------------------------------------------|
F#-5---5---5---5---5---5---5---5-----------------------------------|
C#-5---5---5---5---5---5---5---5---------------------------0*~~~~~-|
G#-3---3---3---3---3---3---3---3---------------------------5*~~~~~-|
C#-----------------------------------------------------------------|

Guitar 2
D#---------------------------------------18-------18-------17------|
A#------------------------------------20-------20-------19---------|
F#-8---8---8---8---8---8---8---8---19-------19-------18-------17~\-|
C#-x---x---x---x---x---x---x---x-----------------------------------|
G#-6---6---6---6---6---6---6---6-----------------------------------|
C#-----------------------------------------------------------------|

===================================================================
===================================================================


Verse 2

Guitar 1 & 2
D#-----------------------------------------------------------------|
A#-----------------------------------------------------------------|
F#-----------------------------------------------------------------|
C#-----------------------------------------------------------------|
G#-----------------------------------------------------------------|
C#-5/~~~~~~~~~~~~~-------------------------------------------------|

===================================================================

Guitar 1 & 2
D#-----------------------------------------------------------------|
A#-----------------------------------------------------------------|
F#-----------------------------------------------------------------|
C#-----------------------------------------------------------------|
G#-----------------------------------------------------------------|
C#-----------------------------------------------------------------|

===================================================================

Guitar 1 & 2
D#-----------------------------------------------------------------|
A#-----------------------------------------------------------------|
F#-----------------------------------------------------------------|
C#-----------------------------------------------------------------|
G#-----------------------------------------------------------------|
C#-----------------------------------------------------------------|

===================================================================

Guitar 1
D#-----------------------------------------------------------------|
A#-----------------------------------------------------------------|
F#-----------------------------------------------------------------|
C#-----------------------------------------------------x-x---------|
G#-----------------------------------------------------x-x-10\~~~~-|
C#-----------------------------------------------------x-x---------|

===================================================================

Guitar 2
D#-----------------------------------------------------------------|
A#-8-8-8-8-8-8-8-8-8-8-8-8-8-8-8-8-8-------------------------------|
F#-x-x-x-x-x-x-x-x-x-x-x-x-x-x-x-x-x-------------------------------|
C#-5-5-5-5-5-5-5-5-5-5-5-5-5-5-5-5-5-------------------x-x---------|
G#-----------------------------------------------------x-x-10\~~~~-|
C#-----------------------------------------------------x-x---------|

===================================================================

Guitar 1
D#-----------------------------------------------------------------|
A#-----------------------------------------------------------------|
F#-----------------------------------------------------------------|
C#-------------5-5---5-5-------------------------------------------|
G#-------------5-5---5-5-------------------------------------------|
C#-15\~~~~~~~~-5-5---5-5-------------------------------------------|
Pm             . .   . .

Guitar 2
D#-----------------------------------------------------------------|
A#-----------------------------------------------------------------|
F#-----------------------------------------------------------------|
C#-5~~~~~~-----8-8---8-8---7---0-0-5~~~~---------------------------|
G#---------5-----------------------------5~~~~-8-------------------|
C#-------------------------------------------------8~~~~~~-7~~~~~~-|
Pm                             . .

===================================================================

Guitar 1
D#-----------------------------------------------------------------|
A#-----------------------------------------------------------------|
F#-----------------------------------------------------------------|
C#-------------0-0---0-0-------------------------------------------|
G#-------------0-0---0-0-------------------------------------------|
C#-------------0-0---0-0-------------------------------------------|
Pm             . .   . .

Guitar 2
D#-----------------------------------------------------------------|
A#-----------------------------------------------------------------|
F#-----------------------------------------------------------------|
C#-5~~~~~~-----0-0---0-0-----------5~~~~---------------------------|
G#---------5-----------------------------5~~~~-8-------------------|
C#-------------------------------------------------8~~~~~~-7~~~~~~-|

===================================================================

Guitar 1
D#-----------------------------------------------------------------|
A#-----------------------------------------------------------------|
F#-----------------------------------------------------------------|
C#-------------1-1---1-1-----------------------1-1---1-1-----------|
G#-------------1-1---1-1-----------------------1-1---1-1-----------|
C#-------------1-1---1-1-----------------------1-1---1-1-----------|
Pm             . .   . .                       . .   . .

Guitar 2
D#-----------------------------------------------------------------|
A#-----------------------------------------------------------------|
F#-----------------------------------------------------------------|
C#-5~~~~~~-----10-10--10-10-----0-0-5~~~---------------------------|
G#---------5-----------------8-----------5~~~~-8-------------------|
C#-------------------------------------------------8~~~~~~-7~~~~~~-|
Pm                              . .

===================================================================

Guitar 1 & 2
D#-----------------------------------------------------------------|
A#-----------------------------------------------------------------|
F#-7---------------------------------------------------------------|
C#-7-------------------------------0~~~~~~~~~~~~~~~~~~~~~~~~~~~~~~-|
G#-5-------------------------------0~~~~~~~~~~~~~~~~~~~~~~~~~~~~~~-|
C#---------------------------------0~~~~~~~~~~~~~~~~~~~~~~~~~~~~~~-|

===================================================================
===================================================================


Pre Chorus 2

Guitar 1
D#-----------------------------------------------------------------|
A#-----------------------------------------------------------------|
F#---------------------------------8-8-8-8-8-8-8-8-8-8-8-8-8-8-8-8-|
C#-5-5-5-5-5-5-5-5-5-5-5-5-5-5-5-5---------------------------------|
G#-----------------------------------------------------------------|
C#-----------------------------------------------------------------|

Guitar 2
D#-----------------------------------------------------------------|
A#-11~~~-10~~~---------------------11~~~-10~~~-----8~~~~-------8---|
F#-----------------12~~~---------------------------------10~~~-----|
C#-------------12--------10~~~-12--------------0-------------------|
G#-----------------------------------------------------------------|
C#-----------------------------------------------------------------|

===================================================================

Guitar 1
D#-----------------------------------------------------------------|
A#-----------------------------------------------------------------|
F#---------------------------------7-7-7-7-7-7-7-7-7-7-7-7-7-7-----|
C#-7-7-7-7-7-7-7-7-7-7-7-7-7-7-7-7---------------------------------|
G#-----------------------------------------------------------------|
C#-----------------------------------------------------------------|

Guitar 2
D#-----------------------------------------------------------------|
A#-11~~~-10~~~---------------------11~~~-10~~~-----10--------------|
F#-----------------12~~~-----------------------12------------------|
C#-------------12--------10~~~-12----------------------------------|
G#-----------------------------------------------------------------|
C#-----------------------------------------------------------------|

===================================================================
===================================================================


Chorus 2

Guitar 1
D#-----------------------------------------------------------------|
A#-----------------------------------------------------------------|
F#-----------------------------------------------------------------|
C#-5---5---5---5---5---5---5---5---1---1---1---1---1---1---1---1---|
G#-5---5---5---5---5---5---5---5---1---1---1---1---1---1---1---1---|
C#-5---5---5---5---5---5---5---5---1---1---1---1---1---1---1---1---|

Guitar 2
D#-----------------------------------------------------------------|
A#-11--11--11--11--11--11--11--11--8---8---8---8---8---8---8---8---|
F#-x---x---x---x---x---x---x---x---x---x---x---x---x---x---x---x---|
C#-8---8---8---8---8---8---8---8---5---5---5---5---5---5---5---5---|
G#-----------------------------------------------------------------|
C#-----------------------------------------------------------------|

===================================================================

Guitar 1
D#-----------------------------------------------------------------|
A#-----------------------------------------------------------------|
F#-5---5---5---5---5---5---5---5-----------------------------------|
C#-5---5---5---5---5---5---5---5---0---0---0---0---0---0---0---0---|
G#-3---3---3---3---3---3---3---3---0---0---0---0---0---0---0---0---|
C#---------------------------------0---0---0---0---0---0---0---0---|

Guitar 2
D#-----------------------------------------------------------------|
A#-----------------------------------------------------------------|
F#-8---8---8---8---8---8---8---8---7---7---5---5---3---3-----------|
C#-x---x---x---x---x---x---x---x---x---x---x---x---x---x---x-x-x-x-|
G#-6---6---6---6---6---6---6---6---5---5---3---3---1---1---x-x-x-x-|
C#---------------------------------------------------------x-x-x-x-|

===================================================================

Guitar 1
D#-----------------------------------------------------------------|
A#-----------------------------------------------------------------|
F#-----------------------------------------------------------------|
C#-5---5---5---5---5---5---5---5---1---1---1---1---1---1---1---1---|
G#-5---5---5---5---5---5---5---5---1---1---1---1---1---1---1---1---|
C#-5---5---5---5---5---5---5---5---1---1---1---1---1---1---1---1---|

Guitar 2
D#-----------------------------------------------------------------|
A#-11--11--11--11--11--11--11--11--8---8---8---8---8---8---8---8---|
F#-x---x---x---x---x---x---x---x---x---x---x---x---x---x---x---x---|
C#-8---8---8---8---8---8---8---8---5---5---5---5---5---5---5---5---|
G#-----------------------------------------------------------------|
C#-----------------------------------------------------------------|

===================================================================

Guitar 1
D#-----------------------------------------------------------------|
A#-----------------------------------------------------------------|
F#-5---5---5---5---5---5---5---5---5---5---5---5---5---5---5---5---|
C#-5---5---5---5---5---5---5---5---5---5---5---5---5---5---5---5---|
G#-3---3---3---3---3---3---3---3---3---3---3---3---3---3---3---3---|
C#-----------------------------------------------------------------|

Guitar 2
D#-----------------------------------------------------------------|
A#-----------------------------------------------------------------|
F#-8---8---8---8---8---8---8---8---10--10--10--10--10--10--10--10--|
C#-x---x---x---x---x---x---x---x---x---x---x---x---x---x---x---x---|
G#-6---6---6---6---6---6---6---6---8---8---8---8---8---8---8---8---|
C#-----------------------------------------------------------------|

===================================================================

Guitar 1
D#-----------------------------------------------------------------|
A#-----------------------------------------------------------------|
F#-----------------------------------------------------------------|
C#-----------------8~~~~-7~~~~-5-------------------7~~~~-----------|
G#-------------5-------------------------------5---------5~~~~-1---|
C#-5~~~~~~~~~~---------------------4~~~~~~~~~~---------------------|

Guitar 2
D#-------------------------------------------------|
A#-15----13-15----13-15----------------------------|
F#-------------------------17----15-17----15-17----|
C#----12-------12-------12----12-------12-------12-|
G#-------------------------------------------------|
C#-------------------------------------------------|

Guitar 2 continued
D#-------------------------------------------------|
A#-------------------------------------------------|
F#-15----14-15----14-15----14----12-14----12-14----|
C#----12-------12-------12----12-------12-------12-|
G#-------------------------------------------------|
C#-------------------------------------------------|

===================================================================

Guitar 1
D#-----------------------------------------------------------------|
A#-----------------------------------------------------------------|
F#-----------------5~~~~~~~~~~~~~~-----------------5~~~~-----------|
C#---------------------------------------4~~~~-7---------8~~~~-7---|
G#-3~~~~~~~~~~~~~~-----------------5~~~~---------------------------|
C#-----------------------------------------------------------------|

Guitar 2
D#-------------------------------------------------|
A#-15----13-15----13-15----------------------------|
F#-------------------------17----15-17----15-17----|
C#----12-------12-------12----12-------12-------12-|
G#-------------------------------------------------|
C#-------------------------------------------------|

Guitar 2 continued
D#-------------------------------------------------|
A#-------------------------------------------------|
F#-15----14-15----14-15----14----12-14----12-14----|
C#----12-------12-------12----12-------12-------12-|
G#-------------------------------------------------|
C#-------------------------------------------------|

===================================================================

Guitar 1
D#-----------------------------------------------------------------|
A#-----------------------------------------------------------------|
F#-----------------------------------------------------------------|
C#-5---5---5---5---5---5---5---5---1---1---1---1---1---1---1---1---|
G#-5---5---5---5---5---5---5---5---1---1---1---1---1---1---1---1---|
C#-5---5---5---5---5---5---5---5---1---1---1---1---1---1---1---1---|

Guitar 2
D#-----------------------------------------------------------------|
A#-11--11--11--11--11--11--11--11--8---8---8---8---8---8---8---8---|
F#-x---x---x---x---x---x---x---x---x---x---x---x---x---x---x---x---|
C#-8---8---8---8---8---8---8---8---5---5---5---5---5---5---5---5---|
G#-----------------------------------------------------------------|
C#-----------------------------------------------------------------|

===================================================================

Guitar 1
D#-----------------------------------------------------------------|
A#-----------------------------------------------------------------|
F#-5---5---5---5---5---5---5---5---2h3p2p0-2h3p2p0-2h3p2p0-2h3p2p0-|
C#-5---5---5---5---5---5---5---5-----------------------------------|
G#-3---3---3---3---3---3---3---3-----------------------------------|
C#-----------------------------------------------------------------|

Guitar 2
D#---------------------------------|
A#---------------------------------|
F#-8---8---8---8---8---8---8---8---|
C#-x---x---x---x---x---x---x---x---|
G#-6---6---6---6---6---6---6---6---|
C#---------------------------------|

Guitar 2 continued
D#-------------------------------------------------|
A#-------------------------------------------------|
F#-12-12-12-12-14-14-14-14-15-15-15-15-17-17-17-17-|
C#-------------------------------------------------|
G#-------------------------------------------------|
C#-------------------------------------------------|

===================================================================

Guitar 1
D#-----------------------------------------------------------------|
A#-----------------------------------------------------------------|
F#-2h3p2p0-2h3p2p0-2h3p2p0-2h3p2p0---------------------------------|
C#---------------------------------0-0-0-0-0-0-0-0-0-0-0-0-0-0-0-0-|
G#---------------------------------0-0-0-0-0-0-0-0-0-0-0-0-0-0-0-0-|
C#---------------------------------0-0-0-0-0-0-0-0-0-0-0-0-0-0-0-0-|
Pm                                 . . . . . . . . . . . . . . . .

Guitar 2
D#-------------------------17-17-17-17-20-20-20-20-|
A#-15-15-15-15-19-19-19-19-------------------------|
F#-------------------------------------------------|
C#-------------------------------------------------|
G#-------------------------------------------------|
C#-------------------------------------------------|

Guitar 2 continued
D#---------------------------------|
A#---------------------------------|
F#---------------------------------|
C#-0-0-0-0-0-0-0-0-0-0-0-0-0-0-0-0-|
G#-0-0-0-0-0-0-0-0-0-0-0-0-0-0-0-0-|
C#-0-0-0-0-0-0-0-0-0-0-0-0-0-0-0-0-|
Pm . . . . . . . . . . . . . . . .

===================================================================

Guitar 1 & 2
D#-----------------------------------------------------------------|
A#-----------------------------------------------------------------|
F#-----------------------------------------------------------------|
C#-0~~~~~~~~~~~~~~~~~~~~~~~~~~~~~~---------------------------------|
G#-0~~~~~~~~~~~~~~~~~~~~~~~~~~~~~~---------------------------------|
C#-0~~~~~~~~~~~~~~~~~~~~~~~~~~~~~~---------------------------------|

===================================================================
===================================================================


Interlude

Guitar 1
D#-----------------------------------------------------------------|
A#-----------------------------------------------------------------|
F#-----------------------------------------------------------------|
C#-----------------5-----------------------------------------------|
G#-----------------5-----------------------------------------------|
C#-5-5-5-5-5-5-5-5-5-----------------------------------------------|
Pm . . . . . . . .

Guitar 2
D#------------------------------------------------------------------|
A#------------------------------------------------------------------|
F#-12~~~~~-15~~~~~-14~~~~~-15~~~~~-12~~~~~-15~~~~~-14~~~~~-15~~~~~~-|
C#-----12~~~~~-12~~~~~-12~~~~~-12~~~~~-12~~~~~-12~~~~~-12~~~~~-12~~-|
G#------------------------------------------------------------------|
C#------------------------------------------------------------------|

===================================================================

Guitar 1
D#-----------------------------------------------------------------|
A#-----------------------------------------------------------------|
F#-----------------------------------------------------------------|
C#-----------------5-----------------------------------------------|
G#-----------------5-----------------------------------------------|
C#-5-5-5-5-5-5-5-5-5-----------------------------------------------|
Pm . . . . . . . .

Guitar 2
D#-----------------------------------------------------------------|
A#-----------------------------------------------------------------|
F#-12~~~~~-15~~~~~-14~~~~~-15~~~~~-12~~~~~-15----------------------|
C#-~~~-12~~~~~-12~~~~~-12~~~~~-12~~~~~-12~~~~~-12--12~~~~~-11~~~~~-|
G#-----------------------------------------------------------------|
C#-----------------------------------------------------------------|

===================================================================

Guitar 1
D#-----------------------------------------------------------------|
A#-----------------------------------------------------------------|
F#-----------------------------------------------------------------|
C#-----------------5-----------------------------------------------|
G#-----------------1-----------------------------------------------|
C#-1-1-1-1-1-1-1-1-1-----------------------------------------------|
Pm . . . . . . . .

Guitar 2
D#-----------------------------------------------------------------|
A#-----------------------------------------------------------------|
F#-----7~~-8~~-7~~~~~~-7~~-8~~-7~~~~~~-7~~-8~~-7~~~~~~-7~~-8~~-7~~-|
C#-10~~~~~~~~~~~~~-10~~~~~~~~~~~~~-10~~~~~~~~~~~~~-10~~~~~~~~~~~~~-|
G#-----------------------------------------------------------------|
C#-----------------------------------------------------------------|

===================================================================

Guitar 1
D#-----------------------------------------------------------------|
A#-----------------------------------------------------------------|
F#-----------------------------------------------------------------|
C#-----------------7-----------------------------------------------|
G#-----------------4-----------------------------------------------|
C#-4-4-4-4-4-4-4-4-4-----------------------------------------------|
Pm . . . . . . . .

Guitar 2
D#-----------------------------------------------------------------|
A#-----------------10~~~~~-----------------------------------------|
F#-----8~~-10~-------------10~-8~~~~~~-8~~-10~-8~~~~~~-8~~-10~-8~~-|
C#-10~~~~~~~~~-10~~~~~-10~~~~~~~~~-10~~~~~~~~~~~~~-10~~~~~~~~~~~~~-|
G#-----------------------------------------------------------------|
C#-----------------------------------------------------------------|

===================================================================

Guitar 1
D#-----------------------------------------------------------------|
A#-----------------------------------------------------------------|
F#-----------------------------------------------------------------|
C#-----------------5-------------------5---5-----------5---5-------|
G#-----------------5-------------------5---5-----------5---5-------|
C#-5-5-5-5-5-5-5-5-5-------------------5---5-----------5---5-------|
Pm . . . . . . . .                     .   .           .   .

Guitar 2
D#------------------------------------------------------------------|
A#------------------------------------------------------------------|
F#-12~~~~~-15~~~~~-14~~~~~-15~~~~~-12~~~~~-15~~~~~-14~~~~~-15~~~~~~-|
C#-----12~~~~~-12~~~~~-12~~~~~-12~~~~~-12~~~~~-12~~~~~-12~~~~~-12~~-|
G#------------------------------------------------------------------|
C#------------------------------------------------------------------|

===================================================================

Guitar 1
D#-----------------------------------------------------------------|
A#-----------------------------------------------------------------|
F#-----------------------------------------------------------------|
C#-----------------5-------------------5---5---------------3*~~~~~-|
G#-----------------5-------------------5---5-------5~~~~~~---------|
C#-5-5-5-5-5-5-5-5-5-------------------5---5-----------------------|
Pm . . . . . . . .                     .   .

Guitar 2
D#-----------------------------------------------------------------|
A#-----------------------------------------------------------------|
F#-12~~~~~-15~~~~~-14~~~~~-15~~~~~-12~~~~~-15----------------------|
C#-~~~-12~~~~~-12~~~~~-12~~~~~-12~~~~~-12~~~~~-12--12~~~~~-11~~~~~-|
G#-----------------------------------------------------------------|
C#-----------------------------------------------------------------|

===================================================================

Guitar 1
D#-----------------------------------------------------------------|
A#-----------------------------------------------------------------|
F#-----------------------------------------------------------------|
C#-----------------5-------------------5---5-----------5---5-------|
G#-----------------1-------------------1---1-----------1---1-------|
C#-1-1-1-1-1-1-1-1-1-------------------1---1-----------1---1-------|
Pm . . . . . . . .                     .   .           .   .

Guitar 2
D#-----------------------------------------------------------------|
A#-----------------------------------------------------------------|
F#-----7~~-8~~-7~~~~~~-7~~-8~~-7~~~~~~-7~~-8~~-7~~~~~~-7~~-8~~-7~~-|
C#-10~~~~~~~~~~~~~-10~~~~~~~~~~~~~-10~~~~~~~~~~~~~-10~~~~~~~~~~~~~-|
G#-----------------------------------------------------------------|
C#-----------------------------------------------------------------|

===================================================================

Guitar 1
D#-----------------------------------------------------------------|
A#-----------------------------------------------------------------|
F#-------------------------------------------------5~~~~~~~~~~~~~~-|
C#-----------------7---------------7~~~~~~~~~~~~~~-x---------------|
G#-----------------4---------------4~~~~~~~~~~~~~~-4~~~~~~~~~~~~~~-|
C#-4-4-4-4-4-4-4-4-4---------------4~~~~~~~~~~~~~~-4~~~~~~~~~~~~~~-|
Pm . . . . . . . .

Guitar 2
D#-----------------------------------------------------------------|
A#-----------------10~~~~~-----------------------------------------|
F#-----8~~-10~-------------10~-8~~~~~~-8~~-10~-8~~~~~~-8~~-10~-8~~-|
C#-10~~~~~~~~~-10~~~~~-10~~~~~~~~~-10~~~~~~~~~~~~~-10~~~~~~~~~~~~~-|
G#-----------------------------------------------------------------|
C#-----------------------------------------------------------------|

===================================================================
===================================================================


Bridge

Guitar 2
D#-----------------------------------------------------------------|
A#-----------------------------------------------------------------|
F#---------------------------------8-8-8-8-8-8-8-8-8-8-8-8-8-8-8-8-|
C#-5-5-5-5-5-5-5-5-5-5-5-5-5-5-5-5---------------------------------|
G#-----------------------------------------------------------------|
C#-----------------------------------------------------------------|

===================================================================

Guitar 2
D#-----------------------------------------------------------------|
A#-----------------------------------------------------------------|
F#---------------------------------7-7-7-7-5-5-5-5-----------------|
C#-7-7-7-7-7-7-7-7-7-7-7-7-7-7-7-7-----------------8-8-8-8-7-7-7-7-|
G#-----------------------------------------------------------------|
C#-----------------------------------------------------------------|

===================================================================

Guitar 1
D#-----------------------------------------------------------------|
A#-----------------------------------------------------------------|
F#-----------------------------------------------------------------|
C#-5~~~~~~~~~~~~~~~~~~~~~~~~~~~~~~-1~~~~~~~~~~~~~~~~~~~~~~~~~~~~~~-
G#-5~~~~~~~~~~~~~~~~~~~~~~~~~~~~~~-1~~~~~~~~~~~~~~~~~~~~~~~~~~~~~~-
C#-5~~~~~~~~~~~~~~~~~~~~~~~~~~~~~~-1~~~~~~~~~~~~~~~~~~~~~~~~~~~~~~-

Guitar 2
D#-----------------------------------------------------------------|
A#-----------------------------------------------------------------|
F#---------------------------------8-8-8-8-8-8-8-8-8-8-8-8-8-8-8-8-|
C#-5-5-5-5-5-5-5-5-5-5-5-5-5-5-5-5---------------------------------|
G#-----------------------------------------------------------------|
C#-----------------------------------------------------------------|

===================================================================

Guitar 1
D#-----------------------------------------------------------------|
A#-----------------------------------------------------------------|
F#---------------------------------7-7-7-7-7-7-7-7-7-7-7-7-7-------|
C#-0~~~~~~~~~~~~~~~~~~~~~~~~~~~~~~-x-x-x-x-x-x-x-x-x-x-x-x-x-------|
G#-0~~~~~~~~~~~~~~~~~~~~~~~~~~~~~~-5-5-5-5-5-5-5-5-5-5-5-5-5-------|
C#-0~~~~~~~~~~~~~~~~~~~~~~~~~~~~~~---------------------------------|

Guitar 2
D#-----------------------------------------------------------------|
A#-----------------------------------------------------------------|
F#---------------------------------7-7-7-7-7-7-7-7-7-7-7-7-7-------|
C#-7-7-7-7-7-7-7-7-7-7-7-7-7-7-7-7---------------------------------|
G#-----------------------------------------------------------------|
C#-----------------------------------------------------------------|

===================================================================
===================================================================


Chorus 3

Guitar 1
D#-----------------------------------------------------------------|
A#-----------------------------------------------------------------|
F#-----------------------------------------------------------------|
C#-5---5---5---5---5---5---5---5---1---1---1---1---1---1---1---1---|
G#-5---5---5---5---5---5---5---5---1---1---1---1---1---1---1---1---|
C#-5---5---5---5---5---5---5---5---1---1---1---1---1---1---1---1---|

Guitar 2
D#-----------------------------------------------------------------|
A#-11--11--11--11--11--11--11--11--8---8---8---8---8---8---8---8---|
F#-x---x---x---x---x---x---x---x---x---x---x---x---x---x---x---x---|
C#-8---8---8---8---8---8---8---8---5---5---5---5---5---5---5---5---|
G#-----------------------------------------------------------------|
C#-----------------------------------------------------------------|

===================================================================

Guitar 1
D#-----------------------------------------------------------------|
A#-----------------------------------------------------------------|
F#-5---5---5---5---5---5---5---5-----------------------------------|
C#-5---5---5---5---5---5---5---5---0---0---0---0---0---0---0---0---|
G#-3---3---3---3---3---3---3---3---0---0---0---0---0---0---0---0---|
C#---------------------------------0---0---0---0---0---0---0---0---|

Guitar 2
D#-----------------------------------------------------------------|
A#-----------------------------------------------------------------|
F#-8---8---8---8---8---8---8---8---7---7---5---5---3---3-----------|
C#-x---x---x---x---x---x---x---x---x---x---x---x---x---x---x-x-x-x-|
G#-6---6---6---6---6---6---6---6---5---5---3---3---1---1---x-x-x-x-|
C#---------------------------------------------------------x-x-x-x-|

===================================================================

Guitar 1
D#-----------------------------------------------------------------|
A#-----------------------------------------------------------------|
F#-----------------------------------------------------------------|
C#-5---5---5---5---5---5---5---5---1---1---1---1---1---1---1---1---|
G#-5---5---5---5---5---5---5---5---1---1---1---1---1---1---1---1---|
C#-5---5---5---5---5---5---5---5---1---1---1---1---1---1---1---1---|

Guitar 2
D#-----------------------------------------------------------------|
A#-11--11--11--11--11--11--11--11--8---8---8---8---8---8---8---8---|
F#-x---x---x---x---x---x---x---x---x---x---x---x---x---x---x---x---|
C#-8---8---8---8---8---8---8---8---5---5---5---5---5---5---5---5---|
G#-----------------------------------------------------------------|
C#-----------------------------------------------------------------|

===================================================================

Guitar 1
D#-----------------------------------------------------------------|
A#-----------------------------------------------------------------|
F#-5---5---5---5---5---5---5---5---5---5---5---5---5---5---5---5---|
C#-5---5---5---5---5---5---5---5---5---5---5---5---5---5---5---5---|
G#-3---3---3---3---3---3---3---3---3---3---3---3---3---3---3---3---|
C#-----------------------------------------------------------------|

Guitar 2
D#-----------------------------------------------------------------|
A#-----------------------------------------------------------------|
F#-8---8---8---8---8---8---8---8---10--10--10--10--10--10--10--10--|
C#-x---x---x---x---x---x---x---x---x---x---x---x---x---x---x---x---|
G#-6---6---6---6---6---6---6---6---8---8---8---8---8---8---8---8---|
C#-----------------------------------------------------------------|

===================================================================

Guitar 1
D#-----------------------------------------------------------------|
A#-----------------------------------------------------------------|
F#-----------------------------------------------------------------|
C#-----------------8~~~~-7~~~~-5-------------------7~~~~-----------|
G#-------------5-------------------------------5---------5~~~~-1---|
C#-5~~~~~~~~~~---------------------4~~~~~~~~~~---------------------|

Guitar 2
D#-------------------------------------------------|
A#-15----13-15----13-15----------------------------|
F#-------------------------17----15-17----15-17----|
C#----12-------12-------12----12-------12-------12-|
G#-------------------------------------------------|
C#-------------------------------------------------|

Guitar 2 continued
D#-------------------------------------------------|
A#-------------------------------------------------|
F#-15----14-15----14-15----14----12-14----12-14----|
C#----12-------12-------12----12-------12-------12-|
G#-------------------------------------------------|
C#-------------------------------------------------|

===================================================================

Guitar 1
D#-----------------------------------------------------------------|
A#-----------------------------------------------------------------|
F#-----------------5~~~~~~~~~~~~~~-----------------5~~~~-----------|
C#---------------------------------------4~~~~-7---------8~~~~-7---|
G#-3~~~~~~~~~~~~~~-----------------5~~~~---------------------------|
C#-----------------------------------------------------------------|

Guitar 2
D#-------------------------------------------------|
A#-15----13-15----13-15----------------------------|
F#-------------------------17----15-17----15-17----|
C#----12-------12-------12----12-------12-------12-|
G#-------------------------------------------------|
C#-------------------------------------------------|

Guitar 2 continued
D#-------------------------------------------------|
A#-------------------------------------------------|
F#-15----14-15----14-15----14----12-14----12-14----|
C#----12-------12-------12----12-------12-------12-|
G#-------------------------------------------------|
C#-------------------------------------------------|

===================================================================

Guitar 1
D#-----------------------------------------------------------------|
A#-----------------------------------------------------------------|
F#-----------------------------------------------------------------|
C#-5---5---5---5---5---5---5---5---1---1---1---1---1---1---1---1---|
G#-5---5---5---5---5---5---5---5---1---1---1---1---1---1---1---1---|
C#-5---5---5---5---5---5---5---5---1---1---1---1---1---1---1---1---|

Guitar 2
D#-------------------------------------------------|
A#-15----13-15----13-15----------------------------|
F#-------------------------17----15-17----15-17----|
C#----12-------12-------12----12-------12-------12-|
G#-------------------------------------------------|
C#-------------------------------------------------|

Guitar 2 continued
D#-------------------------------------------------|
A#-------------------------------------------------|
F#-15----14-15----14-15----14----12-14----12-14----|
C#----12-------12-------12----12-------12-------12-|
G#-------------------------------------------------|
C#-------------------------------------------------|

===================================================================

Guitar 1
D#-----------------------------------------------------------------|
A#-----------------------------------------------------------------|
F#-5---5---5---5---5---5---5---5---2h3p2p0-2h3p2p0-2h3p2p0---------|
C#-5---5---5---5---5---5---5---5---------------------------12\~~~~-|
G#-3---3---3---3---3---3---3---3---------------------------12\~~~~-|
C#---------------------------------------------------------12\~~~~-|

Guitar 2
D#-------------------------------------------------|
A#-15----13-15----13-15----------------------------|
F#-------------------------17----15-17----15-17----|
C#----12-------12-------12----12-------12-------12-|
G#-------------------------------------------------|
C#-------------------------------------------------|

Guitar 2 continued
D#-------------------------------------------------|
A#-------------------------------------------------|
F#-12-12-12-12-14-14-14-14-15-15-15-15-------------|
C#-------------------------------------12\~~~~~~~~-|
G#-------------------------------------12\~~~~~~~~-|
C#-------------------------------------12\~~~~~~~~-|

===================================================================
===================================================================


Outro

Guitar 1
D#-----------------------------------------------------------------|
A#-----------------------------------------------------------------|
F#---------------------------------8-8-8-8-8-8-8-8-8-8-8-8-8-8-8-8-|
C#-5-5-5-5-5-5-5-5-5-5-5-5-5-5-5-5---------------------------------|
G#-----------------------------------------------------------------|
C#-----------------------------------------------------------------|

Guitar 2
D#-------------------------------------------------|
A#-16-16-16-16-15-15-15-15-16-16-16-16-15-15-15-15-|
F#-------------------------------------------------|
C#-------------------------------------------------|
G#-------------------------------------------------|
C#-------------------------------------------------|

Guitar 2 continued
D#-------------------------------------------------|
A#-------------------------------------------------|
F#-17-17-17-17-15-15-15-15-17-17-17-17-19-19-19-19-|
C#-------------------------------------------------|
G#-------------------------------------------------|
C#-------------------------------------------------|

===================================================================

Guitar 1
D#-----------------------------------------------------------------|
A#-----------------------------------------------------------------|
F#---------------------------------7-7-7-7-5-5-5-5-----------------|
C#-7-7-7-7-7-7-7-7-7-7-7-7-7-7-7-7-----------------8-8-8-8-7-7-7-7-|
G#-----------------------------------------------------------------|
C#-----------------------------------------------------------------|

Guitar 2
D#-------------------------------------------------|
A#-16-16-16-16-15-15-15-15-16-16-16-16-15-15-15-15-|
F#-------------------------------------------------|
C#-------------------------------------------------|
G#-------------------------------------------------|
C#-------------------------------------------------|

Guitar 2 continued
D#-------------------------------------------------|
A#-------------------------------------------------|
F#-15-15-15-15-14-14-14-14-15-15-15-15-17-17-17-17-|
C#-------------------------------------------------|
G#-------------------------------------------------|
C#-------------------------------------------------|

===================================================================

Guitar 1
D#-----------------------------------------------------------------|
A#-----------------------------------------------------------------|
F#---------------------------------8-8-8-8-8-8-8-8-8-8-8-8-8-8-8-8-|
C#-5-5-5-5-5-5-5-5-5-5-5-5-5-5-5-5---------------------------------|
G#-----------------------------------------------------------------|
C#-----------------------------------------------------------------|

Guitar 2
D#-------------------------------------------------|
A#-16-16-16-16-15-15-15-15-16-16-16-16-15-15-15-15-|
F#-------------------------------------------------|
C#-------------------------------------------------|
G#-------------------------------------------------|
C#-------------------------------------------------|

Guitar 2 continued
D#-------------------------------------------------|
A#-------------------------------------------------|
F#-17-17-17-17-15-15-15-15-17-17-17-17-19-19-19-19-|
C#-------------------------------------------------|
G#-------------------------------------------------|
C#-------------------------------------------------|

===================================================================

Guitar 1
D#-------------------------------------------------------------------|
A#-------------------------------------------------------------------|
F#-------------------------------------------------6-6-5-5-5-5-5-5\~-|
C#-7-7-7-7-7-7-7-7-7-7-7-7-7-7-7-7-1-1-1-1-1-1-0-0-6-6-5-5-5-5-5-5\~-|
G#---------------------------------1-1-1-1-1-1-0-0-4-4-3-3-3-3-3-3\~-|
C#---------------------------------1-1-1-1-1-1-0-0-------------------|
Pm                                 . . . . . . . . . . . . . . . .

Guitar 2
D#-------------------------------------------------|
A#-16-16-16-16-15-15-15-15-16-16-16-16-15-15-15-15-|
F#-------------------------------------------------|
C#-------------------------------------------------|
G#-------------------------------------------------|
C#-------------------------------------------------|

Guitar 2 continued
D#-----------------------------------|
A#-----------------------------------|
F#-----------------6-6-5-5-5-5-5-5\~-|
C#-1-1-1-1-1-1-0-0-6-6-5-5-5-5-5-5\~-|
G#-1-1-1-1-1-1-0-0-4-4-3-3-3-3-3-3\~-|
C#-1-1-1-1-1-1-0-0-------------------|
Pm . . . . . . . . . . . . . . . .

===================================================================
===================================================================
===================================================================


Tab Legend
h  - hammer-on
p  - pull-off
/  - slide up
\  - slide down
ps/- pickslide up
ps\- pickslide down
~  - let ring
pm.- palm mute
b  - bend
r  - return from bend
t  - finger tapping
*  - harmonic
x  - dead note
^  - Whammy bar
^\ - Whammy bar (hold down)

That is all! I hope this helped, and be sure to check out my cover if you are
having problems with the tab. Thanks, oh and one last thing... ROCK OUT!!!!
Tap to rate this tab
# A B C D E F G H I J K L M N O P Q R S T U V W X Y Z