Song name
# A B C D E F G H I J K L M N O P Q R S T U V W X Y Z

Pierce The Veil - May These Noises Startle You In Your Sleep tab

----------------------------------------------------------------------------
                 May These Noises Startle You in Your Sleep
                            Pierce the Veil
----------------------------------------------------------------------------

To start, I have no idea about the names of the parts. Whether they are verses, bridges, 
choruses I do not know. So, I will just guess. That is the only guessing I ever do in 
my tabs. Enjoy and may this tab startle you in your sleep.

Username: dkm817 (same on X box live)
Youtube Cover: http://www.youtube.com/watch?v=4kLSZWQAbaI
Email: guitardrums@rockfan.com

Guitar 1 Rhythmic (C# G# C# F# A# D#)
Guitar 2 Lead     (C# G# C# F# A# D#)

Tab Guide...
===================================================================
(end of measures)

===================================================================
===================================================================
(end of parts)

===================================================================
===================================================================
===================================================================
(end of song)

(If there is a “continued” it is because the numbers could not
fit on 1 line or connecting times played.)


Intro

Guitar 1 (Clean)
D#-----------------------------------------------------------------|
A#-----------------------------------------------------------------|
F#-----------------------------------------------------------------|
C#-5~~~~~~-5~~~~~~-5~~~~~~-5~~~~~~-5~~~~~~-5~~~~~~-5~~~~~~-5~~~~~~-|
G#-5~~~~~~-5~~~~~~-5~~~~~~-5~~~~~~-5~~~~~~-5~~~~~~-5~~~~~~-5~~~~~~-|
C#-5~~~~~~-5~~~~~~-5~~~~~~-5~~~~~~-5~~~~~~-5~~~~~~-5~~~~~~-5~~~~~~-|

Guitar 2 (Clean)
D#-----------------------------------------------------------------|
A#-10~~~~~-----------------11~~~~~-10~~~~~-------------------------|
F#---------12~~~~~-------------------------12~~~~~-----------------|
C#-----------------12~~~~~-------------------------12~~~~~-11~~~~~-|
G#-----------------------------------------------------------------|
C#-----------------------------------------------------------------|

===================================================================

Guitar 1
D#-----------------------------------------------------------------|
A#-----------------------------------------------------------------|
F#-5~~~~~~-5~~~~~~-5~~~~~~-5~~~~~~-5~~~~~~-5~~~~~~-5~~~~~~-5~~~~~~-|
C#-5~~~~~~-5~~~~~~-5~~~~~~-5~~~~~~-5~~~~~~-5~~~~~~-5~~~~~~-5~~~~~~-|
G#-3~~~~~~-3~~~~~~-3~~~~~~-3~~~~~~-3~~~~~~-3~~~~~~-3~~~~~~-3~~~~~~-|
C#-----------------------------------------------------------------|

Guitar 2
D#-----------------------------------------------------------------|
A#-----------------10~~~~~-11~~~~~-13~~~~~-10~~~~~-11~~~~~-10~~~~~-|
F#-----------------------------------------------------------------|
C#-10~~~~~---------------------------------------------------------|
G#---------10~~~~~-------------------------------------------------|
C#-----------------------------------------------------------------|

===================================================================

Guitar 1
D#-----------------------------------------------------------------|
A#-----------------------------------------------------------------|
F#-2~~~~~~-2~~~~~~-2~~~~~~-2~~~~~~-2~~~~~~-2~~~~~~-2~~~~~~-2~~~~~~-|
C#-3~~~~~~-3~~~~~~-3~~~~~~-3~~~~~~-3~~~~~~-3~~~~~~-4~~~~~~-4~~~~~~-|
G#-3~~~~~~-3~~~~~~-3~~~~~~-3~~~~~~-3~~~~~~-3~~~~~~-4~~~~~~-4~~~~~~-|
C#-----------------------------------------------------------------|

Guitar 2
D#-----------------------------------------------------------------|
A#---------------------------------10~~~~~-11~~~~~-10~~~~~---------|
F#-12~~~~~-10~~~~~---------12~~~~~-------------------------12~~~~~-|
C#-----------------------------------------------------------------|
G#-----------------------------------------------------------------|
C#-----------------------------------------------------------------|

===================================================================

Guitar 1
D#-----------------------------------------------------------------|
A#-----------------------------------------------------------------|
F#-3~~~~~~-3~~~~~~-3~~~~~~-3~~~~~~-3~~~~~~-3~~~~~~-3~~~~~~-3~~~~~~-|
C#-5~~~~~~-5~~~~~~-5~~~~~~-5~~~~~~-5~~~~~~-5~~~~~~-5~~~~~~-5~~~~~~-|
G#-5~~~~~~-5~~~~~~-5~~~~~~-5~~~~~~-5~~~~~~-5~~~~~~-5~~~~~~-5~~~~~~-|
C#-----------------------------------------------------------------|

Guitar 2
D#---------------------10--11--13--11--10--------------------------|
A#---------10--11--13----------------------13--11--10--11--10------|
F#-------------------------------------------------------------12--|
C#-----------------------------------------------------------------|
G#-----------------------------------------------------------------|
C#-----------------------------------------------------------------|

===================================================================
===================================================================


Verse

Guitar 1
D#-----------------------------------------------------------------|
A#-----------------------------------------------------------------|
F#-----------------------------------------------------------------|
C#-5~~~~~~-5~~~~~~-5~~~~~~-5~~~~~~-5~~~~~~-5~~~~~~-5~~~~~~-5~~~~~~-|
G#-5~~~~~~-5~~~~~~-5~~~~~~-5~~~~~~-5~~~~~~-5~~~~~~-5~~~~~~-5~~~~~~-|
C#-5~~~~~~-5~~~~~~-5~~~~~~-5~~~~~~-5~~~~~~-5~~~~~~-5~~~~~~-5~~~~~~-|

Guitar 2
D#-----------------------------------------------------------------|
A#-10~~~~~-----------------11~~~~~-10~~~~~-------------------------|
F#---------12~~~~~-------------------------12~~~~~-----------------|
C#-----------------12~~~~~-------------------------12~~~~~-11~~~~~-|
G#-----------------------------------------------------------------|
C#-----------------------------------------------------------------|

===================================================================

Guitar 1
D#-----------------------------------------------------------------|
A#-----------------------------------------------------------------|
F#-5~~~~~~-5~~~~~~-5~~~~~~-5~~~~~~-5~~~~~~-5~~~~~~-5~~~~~~-5~~~~~~-|
C#-5~~~~~~-5~~~~~~-5~~~~~~-5~~~~~~-5~~~~~~-5~~~~~~-5~~~~~~-5~~~~~~-|
G#-3~~~~~~-3~~~~~~-3~~~~~~-3~~~~~~-3~~~~~~-3~~~~~~-3~~~~~~-3~~~~~~-|
C#-----------------------------------------------------------------|

Guitar 2
D#-----------------------------------------------------------------|
A#-----------------10~~~~~-11~~~~~-13~~~~~-10~~~~~-11~~~~~-10~~~~~-|
F#-----------------------------------------------------------------|
C#-10~~~~~---------------------------------------------------------|
G#---------10~~~~~-------------------------------------------------|
C#-----------------------------------------------------------------|

===================================================================

Guitar 1
D#-----------------------------------------------------------------|
A#-----------------------------------------------------------------|
F#-2~~~~~~-2~~~~~~-2~~~~~~-2~~~~~~-2~~~~~~-2~~~~~~-2~~~~~~-2~~~~~~-|
C#-3~~~~~~-3~~~~~~-3~~~~~~-3~~~~~~-3~~~~~~-3~~~~~~-4~~~~~~-4~~~~~~-|
G#-3~~~~~~-3~~~~~~-3~~~~~~-3~~~~~~-3~~~~~~-3~~~~~~-4~~~~~~-4~~~~~~-|
C#-----------------------------------------------------------------|

Guitar 2
D#-----------------------------------------------------------------|
A#---------------------------------10~~~~~-11~~~~~-10~~~~~---------|
F#-12~~~~~-10~~~~~---------12~~~~~-------------------------12~~~~~-|
C#-----------------------------------------------------------------|
G#-----------------------------------------------------------------|
C#-----------------------------------------------------------------|

===================================================================

Guitar 1
D#-----------------------------------------------------------------|
A#-----------------------------------------------------------------|
F#-3~~~~~~-3~~~~~~-3~~~~~~-3~~~~~~-3~~~~~~-3~~~~~~-3~~~~~~-3~~~~~~-|
C#-5~~~~~~-5~~~~~~-5~~~~~~-5~~~~~~-5~~~~~~-5~~~~~~-5~~~~~~-5~~~~~~-|
G#-5~~~~~~-5~~~~~~-5~~~~~~-5~~~~~~-5~~~~~~-5~~~~~~-5~~~~~~-5~~~~~~-|
C#-----------------------------------------------------------------|

Guitar 2
D#---------------------10--11--13--11--10--------------------------|
A#---------10--11--13----------------------13--11--10--11--10------|
F#-------------------------------------------------------------12--|
C#-----------------------------------------------------------------|
G#-----------------------------------------------------------------|
C#-----------------------------------------------------------------|

===================================================================

Guitar 1
D#-----------------------------------------------------------------|
A#-----------------------------------------------------------------|
F#-----------------------------------------------------------------|
C#-5~~~~~~-5~~~~~~-5~~~~~~-5~~~~~~-5~~~~~~-5~~~~~~-5~~~~~~-5~~~~~~-|
G#-5~~~~~~-5~~~~~~-5~~~~~~-5~~~~~~-5~~~~~~-5~~~~~~-5~~~~~~-5~~~~~~-|
C#-5~~~~~~-5~~~~~~-5~~~~~~-5~~~~~~-5~~~~~~-5~~~~~~-5~~~~~~-5~~~~~~-|

Guitar 2
D#-----------------------------------------------------------------|
A#-10~~~~~-----------------11~~~~~-10~~~~~-------------------------|
F#---------12~~~~~-------------------------12~~~~~-----------------|
C#-----------------12~~~~~-------------------------12~~~~~-11~~~~~-|
G#-----------------------------------------------------------------|
C#-----------------------------------------------------------------|

===================================================================

Guitar 1
D#-----------------------------------------------------------------|
A#-----------------------------------------------------------------|
F#-5~~~~~~-5~~~~~~-5~~~~~~-5~~~~~~-5~~~~~~-5~~~~~~-5~~~~~~-5~~~~~~-|
C#-5~~~~~~-5~~~~~~-5~~~~~~-5~~~~~~-5~~~~~~-5~~~~~~-5~~~~~~-5~~~~~~-|
G#-3~~~~~~-3~~~~~~-3~~~~~~-3~~~~~~-3~~~~~~-3~~~~~~-3~~~~~~-3~~~~~~-|
C#-----------------------------------------------------------------|

Guitar 2
D#-------------------------------------------------13~~~~~---------|
A#-----------------10~~~~~-13~~~~~-11~~~~~-10~~~~~---------10~~~~~-|
F#-----------------------------------------------------------------|
C#-10~~~~~---------------------------------------------------------|
G#---------10~~~~~-------------------------------------------------|
C#-----------------------------------------------------------------|

===================================================================

Guitar 1
D#-----------------------------------------------------------------|
A#-----------------------------------------------------------------|
F#-2~~~~~~-2~~~~~~-2~~~~~~-2~~~~~~-2~~~~~~-2~~~~~~-2~~~~~~-2~~~~~~-|
C#-3~~~~~~-3~~~~~~-3~~~~~~-3~~~~~~-4~~~~~~-4~~~~~~-4~~~~~~-4~~~~~~-|
G#-3~~~~~~-3~~~~~~-3~~~~~~-3~~~~~~-4~~~~~~-4~~~~~~-4~~~~~~-4~~~~~~-|
C#-----------------------------------------------------------------|

Guitar 2
D#---------10~~~~~-11~~~~~-13~~~~~-13h14~~-------------------------|
A#-14~~~~~---------------------------------13~~~~~-11~~~~~-10~~~~~-|
F#-----------------------------------------------------------------|
C#-----------------------------------------------------------------|
G#-----------------------------------------------------------------|
C#-----------------------------------------------------------------|

===================================================================

Guitar 1
D#-----------------------------------------------------------------|
A#-----------------------------------------------------------------|
F#-3~~~~~~-3~~~~~~-3~~~~~~-3~~~~~~-3~~~~~~-3~~~~~~-3~~~~~~-3~~~~~~-|
C#-5~~~~~~-5~~~~~~-5~~~~~~-5~~~~~~-5~~~~~~-5~~~~~~-5~~~~~~-5~~~~~~-|
G#-5~~~~~~-5~~~~~~-5~~~~~~-5~~~~~~-5~~~~~~-5~~~~~~-5~~~~~~-5~~~~~~-|
C#-----------------------------------------------------------------|

Guitar 2
D#---------10~~~~~-11~~~~~-13~~~~~-13h14~~-------------------------|
A#-14~~~~~---------------------------------13~~~~~-11~~~~~-10~~~~~-|
F#-----------------------------------------------------------------|
C#-----------------------------------------------------------------|
G#-----------------------------------------------------------------|
C#-----------------------------------------------------------------|

===================================================================
===================================================================


Breakdown

Guitar 1
D#-----------------------------------------------------------------|
A#-----------------------------------------------------------------|
F#-----------------------------------------------------------------|
C#-5-------------------5---5---------------------------5-5-5-5-5-5-|
G#-5-------------------5---5---------------------------5-5-5-5-5-5-|
C#-5-------------------5---5---------------------------5-5-5-5-5-5-|
Pm .                   .   .                           . . . . . .

Guitar 2
D#-15-15-15-15-15-15-15-15-15-15-15-15-15-15-15-15-15-15-15-15-15--|
A#-----------------------------------------------------------------|
F#-----------------------------------------------------------------|
C#-----------------------------------------------------------------|
G#-----------------------------------------------------------------|
C#-----------------------------------------------------------------|

===================================================================

Guitar 1
D#-----------------------------------------------------------------|
A#-----------------------------------------------------------------|
F#-----------------------------------------------------------------|
C#-5-------------------5---5-------------------0-------------------|
G#-5-------------------5---5-------------------0-------------------|
C#-5-------------------5---5-------------------0--/8~~~~-7~~~~-5---|
Pm .                   .   .                   .

Guitar 2
D#-18-18-18-18-18-18-18-18-18-18-18-18-18-18-18-18-18-18-18-18-18--|
A#-----------------------------------------------------------------|
F#-----------------------------------------------------------------|
C#-----------------------------------------------------------------|
G#-----------------------------------------------------------------|
C#-----------------------------------------------------------------|

===================================================================

Guitar 1
D#-----------------------------------------------------------------|
A#-----------------------------------------------------------------|
F#-------------------------------------------------------------7---|
C#-0-------------------0---0-------0-0---0-0---0/~~~~~~~~~~~~~-9---|
G#-0-------------------0---0-------0-0---0-0---0/~~~~~~~~~~~~~-----|
C#-0-------------------0---0-------0-0---0-0---0/~~~~~~~~~~~~~-----|
Pm .                   .   .       . .   . .

Guitar 2
D#-14-14-14-14-14-14-14-14-14-14-14-14-14-14-14-14-14-14-14-14-14--|
A#-----------------------------------------------------------------|
F#-----------------------------------------------------------------|
C#-----------------------------------------------------------------|
G#-----------------------------------------------------------------|
C#-----------------------------------------------------------------|

===================================================================

Guitar 1
D#-----------------------------------------------------------------|
A#-----------------------------------------------------------------|
F#-----------------------------------------------------------------|
C#-0-------------------0---0-------0-0-0-0-0-0-0-0-0---x-x-15\~~~~-|
G#-0-------------------0---0-------0-0-0-0-0-0-0-0-0---x-x-15\~~~~-|
C#-0-------------------0---0-------0-0-0-0-0-0-0-0-0---x-x-15\~~~~-|
Pm .                   .   .       . . . . . . . . .

Guitar 2
D#-17-17-17-17-17-17-17-17-17-17-17-17-17-17-17-17-17-17-17-17-17--|
A#-----------------------------------------------------------------|
F#-----------------------------------------------------------------|
C#-----------------------------------------------------------------|
G#-----------------------------------------------------------------|
C#-----------------------------------------------------------------|

===================================================================
===================================================================


Bridge

Guitar 1 x2
D#-----------------------------------------------------------------|
A#-----------------------------------------------------------------|
F#-----------------------------------------------------------------|
C#-----------------------------------------------------------------|
G#-----------------------------------------------------------------|
C#-5-5-5-5-5-5-5-5-5-5-5-5-5-5-5-5-5-5-5-5-5-5-5-5-5-5-5-5-5-5-5-5-|
Pm . . . . . . . . . . . . . . . . . . . . . . . . . . . . . . . .

Guitar 2 x2
D#-----------------------------------------------------------------|
A#-----15--13--11--10----10-11-11~~---15--13--11--10----10-11-11~~-|
F#-----------------------------------------------------------------|
C#-----------------------------------------------------------------|
G#-----------------------------------------------------------------|
C#-----------------------------------------------------------------|

===================================================================

Guitar 1
D#-----------------------------------------------------------------|
A#-----------------------------------------------------------------|
F#-----------------------------------------------------------------|
C#-----------------------------------------------------------------|
G#-----------------------------------------------------------------|
C#-0-0-0-0-0-0-0-0-0-0-0-0-0-0-0-0-0-0-0-0-0-0-0-0-0-0-0-0-0-0-0-0-|
Pm . . . . . . . . . . . . . . . . . . . . . . . . . . . . . . . .

Guitar 2
D#-----13-----------------------------13---------------------------|
A#---------13--11--10----10-11-11~~-------13--11--10----10-11-11~~-|
F#-----------------------------------------------------------------|
C#-----------------------------------------------------------------|
G#-----------------------------------------------------------------|
C#-----------------------------------------------------------------|

===================================================================
===================================================================


Outro

Guitar 1 & 2
D#-----------------------------------------------------------------|
A#-----------------------------------------------------------------|
F#-----------------------------------------------------------------|
C#-5---------------------------------------------------------------|
G#-5---------------------------------------------------------------|
C#-5-----------------------------------------------0/~~~~~~~~~~~~~-|

===================================================================
===================================================================
===================================================================


Tab Legend
h  - hammer-on
p  - pull-off
/  - slide up
\  - slide down
ps/- pickslide up
ps\- pickslide down
~  - let ring
pm.- palm mute
b  - bend
r  - return from bend
t  - finger tapping
*  - harmonic
x  - dead note
^  - Whammy bar
^\ - Whammy bar (hold down)

That is all! I hope this helped, and be sure to check out my cover if you are
having problems with the tab. Thanks, oh and one last thing... ROCK OUT!!!!
Tap to rate this tab
# A B C D E F G H I J K L M N O P Q R S T U V W X Y Z