Song name
# A B C D E F G H I J K L M N O P Q R S T U V W X Y Z

Pierce The Veil - Hold On Till May Acoustic tab

First tab, any corrections send to Sinister-Grin@Hotmail.co.uk

The first note is the note repeated over and over again, you can work out how many times 
it's played easily enough.

                                                              |rake   |
E|--3----1-----------------------------------------------------------8--11--10--8-------------|
B|-----------4--3--4--6--------------------------------------------8----------------8--9--11--|
G|-----------------------7---------8--10--8--7--8--7------------8-----------------------------|
D|--------------------------8--10---------------------8--10--8--------------------------------|
A|--------------------------------------------------------------------------------------------|
E|--------------------------------------------------------------------------------------------|



E|------------------------------------------------------------------------------------|
B|--9--8------8--8h9p8-------------------------------------4--4--4--3--3--3--1--1-----|
G|--------10------------------------3-----3----------------5--5--5--3--3--3--3--3--3--|
D|----------------------1--1--3--5-----5-----5--3--1h3--1--------------------------1--|
A|------------------------------------------------------------------------------------|
E|------------------------------------------------------------------------------------|
                                                        http://www.guitartabcreator.com
Tap to rate this tab
 
# A B C D E F G H I J K L M N O P Q R S T U V W X Y Z