Song name
# A B C D E F G H I J K L M N O P Q R S T U V W X Y Z

Pierce The Veil - Props Mayhem tab

-------------------------------------------------------------------------------
                           Props & Mayhem - Pierce The Veil
-------------------------------------------------------------------------------
Tabbed by: a7x4lifeXxX
E-mail:braunkacey@yahoo.com

Tuning: Drop C#

 Intro:

  Lead guitar:

 D#|------------------------------------------------------------------|
 A#|-9----9---(x4)----------------------------------------------------|
 F#|---12----------10----10----(x4)-6----6---(x4)---0---0-(x2)-6-(x8)-|
 C#|--------10--------13--------------10--------------6--------10-----|
 G#|------------------------11-------------8------6-------------------|
 C#|------------------------------------------------------------------|

   Rhythm guitar:

 D#|-----------------------------------------------------------------------|
 A#|-------------------------------2222222211111111-------------22222222---|
 F#|-------------------------------1111111111111111-------------00000000---|
 C#|----------------55555555666666633333333333333331-1--1-1-1--111111111---|
 G#|----------------33333333333333344444444444444441-1--1-1-1--1-----------|
 C#|----------------333333333333333----------------1-1--1-1-1--1-----------|

   Verse 1:
   Rhythm guitar:  Can't really decipher the lead for the rest of this :/

 D#|------------------------------------------------------------------------|
 A#|-----------------------------------------2-2-----2-------2-2-----2------|
 F#|-----------------------------------------1-1-----1-------1-1-----1------|
 C#|-10-(x8)-8-(x4)-6-(x4)-5-(x8)-6-(x8)-3-3-3-3-3-3-3-3-3-3-3-3-3-3-3-1-1--|
 G#|-6-------6------6------3------3------4-4-----4-4---4-4-4-----4-4---1-1--|
 C#|-------------------------------------------------------------------1-1--|
     .       .      .      .      .      . .     . .   . . .     . .

 D#|-------------------------------------------------------------------------|
 A#|-------------------------------------------------------2-(x16)-----------|
 F#|----------0--0--0--------------------------------------1-----------------|
 C#|-1-1-1--1-1--1--1--10-(x8)-8-(x4)-6-(x4)-5-(x8)-6-(x8)-3-------1-1---1-1-|
 G#|-1-1-1--1----------6-------6------6------3------3------4-------1-1---1-1-|
 C#|-1-1-1--1----------6-------6------6------3------3--------------1-1---1-1-|

 D#|-------------------------------------------------------------------------|
 A#|-------------------------------------------------------------------------|
 F#|-------------------------------------------------------------------------|
 C#|1---1-5-5-5-5/8-8-8-8--3-3-3-3-3-3-3-3-5-5-5-5-6-6-6-6-5-5-5-5-3-3-3-3-5-|
 G#|1---1------------------4-4-4-4-4-4-4-4-4-4-4-4-4-4-4-4-6-6-6-6-6-6-6-6-6-|
 C#|1---1--------------------------------------------------------------------|
                           . . . . . . . . . . . . . . . . . . . . . . . . .
   Chorus:

 D#|--------------------------------------------------------------------------|
 A#|-------------------------------------2------1-----------------------------|
 F#|-------------------------------------1------1------1------3-3-3-3-0-0-0-0-|
 C#|-10-(x8)-8-(x4)-6-(x4)-5-(x8)-6-(x8)-3-(x8)-3-(x8)-1-(x8)-----------------|
 G#|-6-------6------6------3------3------4------4------1----------------------|
 C#|-6-------6------6------3------3--------------------1----------------------|

   Verse 2:

 D#|------------------------------------------------------------------------|
 A#|------------------------------------------------------------------------|
 F#|------------------------------------------------1-1---------------3-3---|
 C#|----------------------------------------------------1-----------------1-|
 G#|----6-6-------(x2)----3-3----------3-3-------4--------3h4-(x2)----------|
 C#|-6------5-5h6------3------5-5-1-3------1-1h3-------------------1--------|

 D#|-------------------------------------------------|
 A#|-------------------------------------------------|
 F#|-------------------------------------------------|
 C#|-6-6------------6-6--xx6-8-6--3-3------------3-3-|
 G#|-6-6--6-6-------6-6--xx6-8-6--3-3--3-3-------3-3-|
 C#|-6-6------5-5h6-6-6--xx6-8-6--3-3------5-5-1-3-3-|

  (Chorusx1)

  Wish I could figure out the rest of it but
atm this is all I got right now and i'm feeling
really tired. I will get back to it though to
finish it up eventually. For now I really hope you enjoy it! Please rate and comment :)
Tap to rate this tab
# A B C D E F G H I J K L M N O P Q R S T U V W X Y Z