Song name
# A B C D E F G H I J K L M N O P Q R S T U V W X Y Z

Pierce The Veil - Southern Constellations tab

-------------------------------------------------------------------------------
                             Southern Constellations - Pierce the Veil
-------------------------------------------------------------------------------
Tabbed by:Trucont
Tuning: Drop D

First tab, please vote and comment.
As far as I can tell, it's correct, but I'm only 90% sure on the last chord.

|--------------------------------------------------------|
|--------------------------------------------------------|
|------------------------------2-------------------------|
|--79~---5~----9-6-5~------2-5-----9---5-9-7---4---5~----|
|-7~-----7~--------3~------3-3-3---7---7-7-5---5---3~----|
|--------------------------------------------------------|

  
|------------------------------------------------------------|
|------------------------------------------------------------|
|--------------------------------------2---------------------|
|-7/9-7----9---10-9-7---9-7-5~-----2-5-----9---5-9-7---4---5~|
|-------10-7----7-7-5---5-5-3~-----3-3-3---7---7-7-5---5---4~|
|------------------------------------------------------------|


|-------2~~~~~-------------------------------------------|
|-------4~~~~~-------------------------------------------|
|-----4-2~~~~~-------------------------------------------|
|-2-5---2~~~~~-------------------------------------------|
|-3-3-3-2~~~~~-------------------------------------------|
|--------------------------------------------------------|
Tap to rate this tab
# A B C D E F G H I J K L M N O P Q R S T U V W X Y Z