Song name
# A B C D E F G H I J K L M N O P Q R S T U V W X Y Z

Pierce The Veil - Hold On Till May Acoustic tab

Hold On Till May Acoustic Solo Tab By NickFrangos.

The first note is played over and over. Just listen to the song for timing.

Eb|-4----2----------------------------------------9-12-11-9-----------------|
Bb|--------5-4-5-7-------------------------------9----------9-10/12-10-9--9-|
Gb|----------------8-----9-11-9-8-9-8-----------9-----------------------11--|
Db|------------------9---------------9/11\9----9----------------------------|
Ab|-------------------------------------------------------------------------|
Eb|-------------------------------------------------------------------------|

Eb|-------------------------------------------------------------------------|
Bb|--9h10p9--------------------5-5-5-4-4-4-2-2------------------------------|
Gb|---------------------4------6-6-6-4-4-4-4-4-4----------------------------|
Db|------------2-2-2-4/6-6-4-2----------------2-----------------------------|
Ab|-----------4-4-4---------------------------------------------------------|
Eb|-------------------------------------------------------------------------|


Tab Legend
h  - hammer-on
p  - pull-off
/  - slide up
\  - slide down

This is my first tab so if you find any corrections or problems email me at 
nickfrangos@hotmail.com. Thanks.
Tap to rate this tab
 
# A B C D E F G H I J K L M N O P Q R S T U V W X Y Z