Song name
# A B C D E F G H I J K L M N O P Q R S T U V W X Y Z

Pierce The Veil - Wonderless tab

e|-----4--------4--------4--------4-------|
B|----------------------------------------|
G|---6---6----6---6----6---6----6---6-----|
D|-7--------7--------7--------7-----------|
A|----------------------------------------|
E|----------------------------------------|

e|---------------------------------------|
B|-----7-5--7--------7-5--7--------------|
G|---7-------7-----7-------7-------------|
D|-7-------------7-----------------------|
A|---------------------------------------|
E|---------------------------------------|

e|-----4-------4---------4----5---4----------|
B|-------------------------------------------|
G|---6---6----6---6----6---6----6---6--------|
D|-7--------7--------7-----------------------|
A|-------------------------------------------|
E|-------------------------------------------|

e|------------------------------------|
B|-----7--5-------6-------------------|
G|---7------7-----7-------------------|
D|-7----------7---7-------------------|
A|------------------------------------|
E|------------------------------------|

my first tap. hope u like it.
Tap to rate this tab
# A B C D E F G H I J K L M N O P Q R S T U V W X Y Z