Song name
# A B C D E F G H I J K L M N O P Q R S T U V W X Y Z

Pierce The Veil - The First Punch tab

Pierce The Veil
The First Punch
Collide With The Sky
2012

Intro:

D|------------------------------------------------------------------|
A|------------------------------------------------------------------|
F|------------------------------------------------------------------|
C|6-666-6-666-6-66-6-666-6-666-6-66-2-222-2-222-2-22-5-555-5-555-55-|
G|6-666-6-666-6-66-6-666-6-666-6-66-2-222-2-222-2-22-5-555-5-555-55-|
C|6-666-6-666-6-66-6-666-6-666-6-66-2-222-2-222-2-22-5-555-5-555-55-|

D|-----------------------------------------------------|
A|----15--------15--------15--------15--------15-15-15-|
F|-12---15---12---15---12---15---12---15---12----------|
C|-----------------------------------------------------|
G|-----------------------------------------------------|
C|-----------------------------------------------------|

D|-----------------------------------------------------|
A|----14--------14--------13--------13--------13-------|
F|-12---15---12---15---12---14---12---15---12---15-14--|
C|-----------------------------------------------------|
G|-----------------------------------------------------|
C|-----------------------------------------------------|

D|-----------------------------------------------------|
A|----15--------15--------15--------15--------15-15-15-|
F|-12---15---12---15---12---15---12---15---12----------|
C|-----------------------------------------------------|
G|-----------------------------------------------------|
C|-----------------------------------------------------|

D|-----------------------------------------------------|
A|----14--------14--------13--------13--------13-------|
F|-12---15---12---15---12---14---12---15---12---15-14--|
C|-----------------------------------------------------|
G|-----------------------------------------------------|
C|-----------------------------------------------------|

D|---------------|
A|---------------|
F|---------------|
C|-6-666-6-666-6-|
G|-6-666-6-666-6-|
C|-6-666-6-666-6-|

Verse I:

D|----------------------------------------------------------------------------|
A|----------------------------------------------------------------------------|
F|-(11)-(11)(11)(11)-(11)-(11)(11)(11)-(11)-(11)(11)-(11)-(11)(11)(11)-(11)---|
C|----------------------------------------------------------------------------|
G|-(11)-(11)(11)(11)-(11)-(11)(11)(11)-(11)-(11)(11)-(11)-(11)(11)(11)-(11)---|
C|----------------------------------------------------------------------------|

D|---------------------------------------------------------------|
A|---------------------------------------------------------------|
F|-(11)(11)(11)-(11)-(11)(11)-8-888-8-888-8-88-(10)-(10)(10)(10)-|
C|---------------------------------------------------------------|
G|-(11)(11)(11)-(11)-(11)(11)-8-888-8-888-8-88-(10)-(10)(10)(10)-|
C|---------------------------------------------------------------|

D|---------------------------------|
A|---------------------------------|
F|-(10)-(10)(10)(10)-(10)-(10)(10)-|
C|---------------------------------|
G|-(10)-(10)(10)(10)-(10)-(10)(10)-|
C|---------------------------------|

D|----------------------------------------------------------------------------|
A|----------------------------------------------------------------------------|
F|-(11)-(11)(11)(11)-(11)-(11)(11)(11)-(11)-(11)(11)-(11)-(11)(11)(11)-(11)---|
C|----------------------------------------------------------------------------|
G|-(11)-(11)(11)(11)-(11)-(11)(11)(11)-(11)-(11)(11)-(11)-(11)(11)(11)-(11)---|
C|----------------------------------------------------------------------------|

D|---------------------------------------------------------------|
A|---------------------------------------------------------------|
F|-(11)(11)(11)-(11)-(11)(11)-8-888-8-888-8-88-(10)-(10)(10)(10)-|
C|---------------------------------------------------------------|
G|-(11)(11)(11)-(11)-(11)(11)-8-888-8-888-8-88-(10)-(10)(10)(10)-|
C|---------------------------------------------------------------|

D|---------------------------------|
A|---------------------------------|
F|-(10)-(10)(10)(10)-(10)-(10)(10)-|
C|---------------------------------|
G|-(10)-(10)(10)(10)-(10)-(10)(10)-|
C|---------------------------------|

D|------------------------------------------------|
A|-(12)--------(12)-------------------------------|
F|-(13)--------(13)--------------(13)--------(13)-|
C|-(13)--------(13)------(13)----(13)--------(13)-|
G|-------------------(13)---(13)-(11)--------(11)-|
C|------------------------------------------------|

Chorus:

D|------------------------------------------------------------|
A|-------------555544442222----444422220000-------------------|
F|------------------------------------------------------------|
C|-666666666-2---------------1--------------66666666622221111-|
G|-666666666-2---------------1--------------66666666622221111-|
C|-666666666-2---------------1--------------66666666622221111-|

D|----------(12)------(12)(11)------(11)-|
A|--------------(12)----------(11)-------|
F|------------------9--------------8-----|
C|-66666666------------------------------|
G|-66666666------------------------------|
C|-66666666------------------------------|

Verse II:

D|-------------------------------------|
A|-------------------------------------|
F|-------------------------------------|
C|-666-666-666-666-666-666-666---------|
G|-666-666-666-666-666-666-666---------|
C|-666-666-666-666-666-666-666-6-5-2-5-|

D|----------------------------------------------------|
A|------------------------------5-5--5--5--5--5--5--5-|
F|------------------------------8-8-b9-b9-b9-b9-b9-b9-|
C|-666-666-666-666-5---5---6--------------------------|
G|-666-666-666-666-5---5---6--------------------------|
C|-666-666-666-666-5---5---6--------------------------|

D|---------------------------------------------------------------|
A|---------------------------------------------------------------|
F|---------------------------------------------------------------|
C|-6----------------------6666666667777777779999(11)(11)(11)(11)-|
G|-6------6-5---6---------6666666665555555557777 9   9   9   9---|
C|-6----------9---9-8-6-5-666666666------------------------------|

D|---------------|
A|---------------|
F|---------------|
C|-9------555555-|
G|-7------555555-|
C|--------555555-|

Chorus II:

D|--------------------------------------------------------------|
A|--------------------------------------------------------------|
F|-(13)(15)(16)(13)(15)(16)(13)(15)(16)(13)(15)(16)(13)(16)(13)-
C|--------------------------------------------------------------|
G|--------------------------------------------------------------|
C|--------------------------------------------------------------|

D|---------------------------------------------------------------------------|
A|-----(17)(17)(17)(17)(16)(16)(16)(16)(14)(14)(14)(14)-----(16)(16)(16)(16)-|
F|---------------------------------------------------------------------------|
C|-(14)-------------------------------------------------(13)-----------------|
G|---------------------------------------------------------------------------|
C|---------------------------------------------------------------------------|

D|----------------------------------
A|-(14)(14)(14)(14)(12)(12)(12)(12)-
F|----------------------------------|
C|----------------------------------|
G|----------------------------------|
C|----------------------------------|

D|--------------------------------------------------------------|
A|--------------------------------------------------------------|
F|-(13)(15)(16)(13)(15)(16)(13)(15)(16)(13)(15)(16)(13)(16)(13)-
C|--------------------------------------------------------------|
G|--------------------------------------------------------------|
C|--------------------------------------------------------------|

D|---------------------------------------------------------------------------|
A|-----(17)(17)(17)(17)(16)(16)(16)(16)(14)(14)(14)(14)-----(16)(16)(16)(16)-|
F|---------------------------------------------------------------------------|
C|-(14)-------------------------------------------------(13)-----------------|
G|---------------------------------------------------------------------------|
C|---------------------------------------------------------------------------|

D|----------------------------------
A|-(14)(14)(14)(14)(12)(12)(12)(12)-
F|----------------------------------|
C|----------------------------------|
G|----------------------------------|
C|----------------------------------|

D|-(19)(18)---(19)(18)---------------------------------|
A|--------(16)-------(16)-------(17)----(17)(16)-------|
F|----------------------(18)(16)--(16)---------(15)----|
C|-----------------------------------(18)---------(17)-|
G|-----------------------------------------------------|
C|-----------------------------------------------------|

D|-(19)(18)---(19)(18)---------------------------------|
A|--------(16)-------(16)-------(17)----(17)(16)-------|
F|----------------------(18)(16)--(16)---------(15)----|
C|-----------------------------------(18)---------(17)-|
G|-----------------------------------------------------|
C|-----------------------------------------------------|

Verse III:

D|-----------------------------------------------|
A|-----------------------------------------------|
F|-(11)-(13)-(14)-b(19)-(13)-(14)-(18)-(16)-(14)-|
C|-----------------------------------------------|
G|-(11)-(13)-(14)-b(19)-(13)-(14)-(18)-(16)-(14)-|
C|-----------------------------------------------|

D|-----------------------------------------------|
A|-----------------------------------------------|
F|-(11)-(13)-(14)-b(19)-(13)-(14)-(18)-(16)-(14)-|
C|-----------------------------------------------|
G|-(11)-(13)-(14)-b(19)-(13)-(14)-(18)-(16)-(14)-|
C|-----------------------------------------------|

D|--------(18)------(18)----------(14)------(14)-----------(14)------(14)-|
A|-----------------------------(12)------(12)-----------(12)------(12)----|
F|-(15)(16)--(15)(16)-------(15)------(15)-----------(15)------(15)-------|
C|---------------------(13)---------------------(13)----------------------|
G|---------------------(11)---------------------(11)----------------------|
C|------------------------------------------------------------------------|

D|----------------------------------|
A|----------------------------------|
F|----------------------------------|
C|----------------------------------|
G|----------------------------------|
C|-66-666666666666622-2222255-55555-|

Chorus III:

D|-----------------------------------------------------------|
A|-------(12)-------(12)-------(12)-------(12)-------(12)----|
F|----(13)-------(13)-------(13)-------(13)-------(13)--(13)-|
C|-----------------------------------------------------------|
G|-(11)-------(11)-------(11)-------(11)-------(11)----------|
C|-----------------------------------------------------------|

D|---------------------------------------------------------------------------|
A|-----(17)(17)(17)(17)(16)(16)(16)(16)(14)(14)(14)(14)-----(16)(16)(16)(16)-|
F|---------------------------------------------------------------------------|
C|-(14)-------------------------------------------------(13)-----------------|
G|---------------------------------------------------------------------------|
C|---------------------------------------------------------------------------|

D|----------------------------------
A|-(14)(14)(14)(14)(12)(12)(12)(12)-
F|----------------------------------|
C|----------------------------------|
G|----------------------------------|
C|----------------------------------|

D|-----------------------------------------------------------|
A|-------(12)-------(12)-------(12)-------(12)-------(12)----|
F|----(13)-------(13)-------(13)-------(13)-------(13)--(13)-|
C|-----------------------------------------------------------|
G|-(11)-------(11)-------(11)-------(11)-------(11)----------|
C|-----------------------------------------------------------|

D|---------------------------------------------------------------------------|
A|-----(17)(17)(17)(17)(16)(16)(16)(16)(14)(14)(14)(14)-----(16)(16)(16)(16)-|
F|---------------------------------------------------------------------------|
C|-(14)-------------------------------------------------(13)-----------------|
G|---------------------------------------------------------------------------|
C|---------------------------------------------------------------------------|

D|----------------------------------
A|-(14)(14)(14)(14)(12)(12)(12)(12)-
F|----------------------------------|
C|----------------------------------|
G|----------------------------------|
C|----------------------------------|

D|-(19)(18)---(19)(18)---------------------------------|
A|--------(16)-------(16)-------(17)----(17)(16)-------|
F|----------------------(18)(16)--(16)---------(15)----|
C|-----------------------------------(18)---------(17)-|
G|-----------------------------------------------------|
C|-----------------------------------------------------|

D|-(19)(18)---(19)(18)---------------------------------|
A|--------(16)-------(16)-------(17)----(17)(16)-------|
F|----------------------(18)(16)--(16)---------(15)----|
C|-----------------------------------(18)---------(17)-|
G|-----------------------------------------------------|
C|-----------------------------------------------------|

D|-------------------------------------------------------|
A|-(17)-----(17)(16)------(16)(17)-----(17)(16)-----(16--|
F|----(16)---------(15)----------(15)---------(15)-------|
C|-------(18)---------(17)----------(18)---------(18)----|
G|-------------------------------------------------------|
C|-------------------------------------------------------|

Outro:

D|-----------------------------------------------------|
A|----15--------15--------15--------15--------15-15-15-|
F|-12---15---12---15---12---15---12---15---12----------|
C|-----------------------------------------------------|
G|-----------------------------------------------------|
C|-----------------------------------------------------|

D|-----------------------------------------------------|
A|----14--------14--------13--------13--------13-------|
F|-12---15---12---15---12---14---12---15---12---15-14--|
C|-----------------------------------------------------|
G|-----------------------------------------------------|
C|-----------------------------------------------------|

D|-----------------------------------------------------|
A|----15--------15--------15--------15--------15-15-15-|
F|-12---15---12---15---12---15---12---15---12----------|
C|-----------------------------------------------------|
G|-----------------------------------------------------|
C|-----------------------------------------------------|

D|-----------------------------------------------------|
A|----14--------14--------13--------13--------13-------|
F|-12---15---12---15---12---14---12---15---12---15-14--|
C|-----------------------------------------------------|
G|-----------------------------------------------------|
C|-----------------------------------------------------|

D|-----------------------------------------------------|
A|----15--------15--------15--------15--------15-15-15-|
F|-12---15---12---15---12---15---12---15---12----------|
C|-----------------------------------------------------|
G|-----------------------------------------------------|
C|-----------------------------------------------------|

D|-----------------------------------------------------|
A|----14--------14--------13--------13--------13-------|
F|-12---15---12---15---12---14---12---15---12---15-14--|
C|-----------------------------------------------------|
G|-----------------------------------------------------|
C|-----------------------------------------------------|

D|-----------------------------------------------------|
A|----15--------15--------15--------15--------15-15-15-|
F|-12---15---12---15---12---15---12---15---12----------|
C|-----------------------------------------------------|
G|-----------------------------------------------------|
C|-----------------------------------------------------|

D|---------------------------------------------------|
A|----14--------14--------13-------------------------|
F|-12---15---12---15---12----------------------------|
C|-------------------------------------------------6-|
G|-------------------------------------------------6-|
C|-------------------------------5-55-5-55-5-9-9-9-6-|

The End!
Tap to rate this tab
# A B C D E F G H I J K L M N O P Q R S T U V W X Y Z