Song name
# A B C D E F G H I J K L M N O P Q R S T U V W X Y Z

Pierce The Veil - King For A Day tab

King For A Day - Pierce The Veil feat. Kellin Quinn
Simplified Version
Standard Tuning: EADGBe
..

Intro:


E ---------------------------------------------------------------------------|
A ----5-----------4----------------------------------------------------------|
D ---------------------------------------------------------------------------|
G ---------------------------------------------------------------------------|
B ----7-----------6----------------------------------------------------------|
e ----7---(x16)---6---(x16)--------------------------------------------------|

while..

E ---------------------------------------------------------------------------|
A ---------------------------------------------------------------------------|
D --9--11--12--------------------8-------------8-----------------------------|
G -------------9--11--12--10--9-----11--10--9-----12--11---------------------|
B ---------------------------------------------------------------------------|
e ---------------------------------------------------------------------------|

1st Verse:

B5 - Bb5
B5 - Bb5

Chorus:

D5 - C#5
D5 - C#5
"you told me think about it well I did.."
B5 - G5 - E5 - F#5

2nd Verse: (w/ Bass Note Hammering)

B5 - Bb5
B5 - Bb5

Chorus:

D5 - C#5
D5 - C#5
"you told me think about it well I did.."
B5 - G5 - E5 - F#5
"imagine living like a king someday.."
B5 - G5 - E5 - F#5

Bridge:

"Hail Mary.. Forgive me.."
B5

while..

E ---------------------------------------------------------------------------|
A -----5--------5-----4--2-----4---------------------------------------------|
D --4-----5--4-----5--------4-----5--4---------------------------------------|
G ---------------------------------------------------------------------------|
B ---------------------------------------------------------------------------|
e ----------------------------------------(x2)-------------------------------|

"FUCK WITH THIS NEW BEST. OH!"
B5 then.. (A String: 2 - 4 - 5)
B5 then.. (A String: 2 - 4 - 5)
F5 then.. (A String: 2 - 4 - 5)
F5 then.. (A String: 5 - 4)
.. (x2)

Chorus:

"you told me think about it well I did.."
B5 - G5 - E5 - F#5
"imagine living like a king someday.."
B5 - G5 - E5 - F#5
B5

..

Listen to the song so you'd know how to understand the tabs (somehow) haha :)
Tap to rate this tab
 
# A B C D E F G H I J K L M N O P Q R S T U V W X Y Z