Song name
# A B C D E F G H I J K L M N O P Q R S T U V W X Y Z

Pierce The Veil - Props And Mayhem tab

Intro (0:00-0:14)
Rhythm
e----------------------------------------------------------------|
B----------------------------------------------------------------|
G---------------------------------------77-777-7-----------------|
D-4----5------109107109107109107109107--77-777-7-1212-1010-99-77-|
A-2(8x)2(8x)--7-77-77-77-77-77-77-77-7--55-555-5-1212-1010-99-77-|
E------------------------------------------------1010-8-8--77-55-|
Lead
e-3-2-3---|    0---0---|    --------|    -------------------|
B-------0-|(4x)--3-----|(4x)1-0-1---|(4x)-------------------|
G---------|    ------0-|    ------2-|    ---0---0--775544---|
D---------|    --------|    --------|    -4---4----------44-|
A---------|    --------|    --------|    -------------------|
E---------|    --------|    --------|    -------------------|

Verse (0:15-0:44)
this verse has two diferent endings and here you have 'em both
e----------------------------------------------------------|
B----------------------------------------------------------|
G--------------------------------------------------77-777-7|
D-9999999977775555--4444444455555555--7-77-7-77-7--77-777-7|
A-5555555555555555--2222222222222222--7-77-7-77-7--55-555-5|
E-------------3333--------------------5-55-5-55-5----------|

Verse First Ending   Verse Second Ending
e-------|           e-------------|
B-------|           B-------------|
G-------|           G-77-7--------|
D-44-94-|           D-77-722-24-7-|
A-44-94-|           A-55-522-24-7-|
E-22-72-|           E-----00-02-5-|


Pre Chorus(0:45-0:50)
e---------------------------|
B---------------------------|
G---------------------------|
D-2222222244445555777755554-|
A-3333333333333333555555555-|
E---------------------------|


Chorus(0:51-1:08)
e-----------------------------------------------------------|
B-----------------------------------------------------------|
G-----------------------------------------------------------|
D-9999999977775555-4444444455555555-7------7777777777774444-|
A-5555555555555555-2222222222222222-7(16x)-5555555555555555-|
E-------------3333------------------5-----------------------|

Verse (1:09-1:38)

e----------------------------------------------------------|
B----------------------------------------------------------|
G----------------------------------------------------------|
D-9999999977775555--4444444455555555--10-----12------------|
A-5555555555555555--2222222222222222--10(16x)12(8x)--------|
E-------------3333-------------------8------10------------|




e-----------------------------------------------------------|
B-----------------------------------------------------------|
G-----------------------------------------------------------|
D-55-555--5-7-5-22-22--10-----12----------------------------|
A-55-555--5-7-5-22-22--10(16x)12(8x)------------------------|
E-33-333--3-5-3-00-00-8------10----------------------------|


Chorus(1:39-2:08)
e-------------------------------------------------------------|
B-------------------------------------------------------------|
G-------------------7-----------------------------7-----------|
D-4----5-----7------7-------5--4----5------7------7-----5-----|
A-2(8x)2(8x)-7(16x)-5(16x)--5--2(8x)2(8x)--7(16x)-5(8x)-5(8x)-|
E------------5--------------3--------------5------------3-----|


Bridge(2:09-2:53)
e------------------------------------------------------------|
B------------------------------------------------------------|
G------------------------------------------------------------|
D-----------------------------------2-2---5-5--9-10-10-------|
A-----------------------------------2-2---5-5--9-10-10-------|
E-0(16x)-3(16x)-8(8x)-10(8x)11(8x)--0-0---3-3--7-8--8---8-3--|

e------------------------------------------------|
B------------------------------------------------|
G------------------------------------------------|
D-12----13-----2------5------10------12----13----|
A-12(8x)13(4x)-2(16x)-5(16x)-10(16x)-12(8x)13(8x-|
E-10----11-----0------3------8-------10----11----|


Chorus(2:54-3:37)
e-------------------------------------------------|
B-------------------------------------------------|
G-------------------------------------------------|
D-4----5-----5------10------12----13------2-------|
A-2(8x)2(8x)-5(16x)-10(16x)-12(8x)13(8x)--2(8x)---|
E------------3------8-------10----11------0-------|

e------------------------------|
B------------------------------|
G-----------7------------------|
D-5--7------7----9----4----5~--|
A-5--7(16x)-5(8x)9(6x)4(6x)5~--|
E-3--5-----------7----2----3~--|
Tap to rate this tab
# A B C D E F G H I J K L M N O P Q R S T U V W X Y Z