Song name
# A B C D E F G H I J K L M N O P Q R S T U V W X Y Z

Pierce The Veil - Hold On Till May tab

Verse 1
D#-0000------0000-------|
A#-0000------0000-------|
F#-9999------8888-------|
C#-7777------6666-------|
G#-7777------6666-------|
C#-7777------6666-------|


Chorus 
D#---0-0-0-0-0-0-0----0-----0------0-----------|
A#----0-0-0-0-0-0-0---0--------0---0-----4--0--|
F#--------------------9------------8-----------|
C#-67-----------------7------------6-----------|
G#--------------------7------------6-----------|
C#--------------------7------------6-----------|

D#-0000------0000-------|
A#-0000------0000-------|
F#-9999------8888-------|
C#-7777------6666-------|
G#-7777------6666-------|
C#-7777------6666-------|

Post Chorus
D#-0000------0000-------|
A#-0000------0000-------|
F#-9999------8888-------|
C#-7777------6666-------|
G#-7777------6666-------|
C#-7777------6666-------|


Verse 2
D#-0000------0000-------|
A#-0000------0000-------|
F#-9999------8888-------|
C#-7777------6666-------|
G#-7777------6666-------|
C#-7777------6666-------|


PreChorus
D#----0-0-0-0-0-0-0-0--|
A#-----0-0-0-0-0-0-0-0-|
F#---------------------|
C#--67-----------------|
G#---------------------|
C#---------------------|

Chorus
D#-0000-0000--0000-0000------|
A#-0000-0000--0000-0000------|
F#-9899-9899--7888-7888------|  2X
C#-7799-7799--6666-6666------|
G#-7777-7777--6666-6666------|
C#-7777-7777--6666-6666------|


Solo
D#--0-0-0-0-0-0-0-0-0-0-0-0-0-0-0-0-0--0--0--0--0--0--0--0--0-|
A#--0-0-0-0-0-0-0-0-0-0-0-0-0-0-0-0-0--0--0--0--0--0--0--0--0-|
F#------------------------------------------------------------|
C#------------------------------------------------------------|
G#---7-7-7-7-7-7-7-7-9-9-9-9-9-9-9-9-11-11-11-11-11-11-11-11--|
C#------------------------------------------------------------|

D#-------------------|
A#----0---0----0----0|
F#-13---9---11----8--|  x2
C#-------------------|
G#11---7---9-----6---|
C#-------------------|


Bridge
D#--0000-0000-0000-0000-|
A#--0000-0000-0000-0000-|
F#--4444-8888-9999-4444-| x3
C#--2222-6666-7777-2222-|
G#--2222-6666-7777-2222-|
C#--2222-6666-7777-2222-|


Chorus(3:46-4:42)
D#0000-0000--0000-0000---0-00----0--0000-|
A#0000-0000--0000-0000---0-00----0--0000-|
F#9899-9899--7888-7888---9-99----9--4444-|
C#7799-7799--6666-6666---7-77----7--2222-|
G#7777-7777--6666-6666---7-77----7--2222-|
C#7777-7777--6666-6666---7-77----7--2222-|

D#-0000------0000--0-------0-|
A#-0000------0000--0-------0-|
F#-8888------9999--4-------2-|
C#-6666------7777--2---2-1-2-|
G#-6666------7777--2-------2-|
C#-6666------7777--2-------2-|
Tap to rate this tab
 
# A B C D E F G H I J K L M N O P Q R S T U V W X Y Z