Song name
# A B C D E F G H I J K L M N O P Q R S T U V W X Y Z

Pierce The Veil - Stay Away From My Friends tab

Stay Away From My Friends - Pierce The Veil

I couldn't find a tab anywhere for this so I thought I'd put one up. This is how I play 
it. All tabs are relative to capo.

Standard Tuning
Capo 2

e|--3-2-------------|--3-2-------------|--3-2-------------|--3-2-------------|
B|------3-0---------|------3-0---------|------3-0---------|------3-0---------|
G|----------0-------|----------0-------|----------0-------|----------0-------|
D|------------4-0---|------------4-0---|------------4-0---|------------4-0---|
A|----------------2-|----------------2-|----------------2-|----------------2-|
E|------------------|------------------|------------------|------------------|
                                                                 Waking up...

This same pattern repeats again after the first chorus but it changes key and the third 
bar changes slightly

e|------------------|------------------|------------------|------------------|
B|--1-0-------------|--1-0-------------|--1-0-------------|--1-0-------------|
G|------0-----------|------0-----------|------0---0-2-0---|------0-----------|
D|--------2---------|--------2---------|--------2-------2-|--------2---------|
A|----------3-2-----|----------3-2-----|------------------|----------3-2-----|
E|--------------3-0-|--------------3-0-|------------------|--------------3-0-|
                                                                       I don't know...

And then the first version of the tab is repeated on the outro.

I hope this helps.
Tap to rate this tab
 
# A B C D E F G H I J K L M N O P Q R S T U V W X Y Z