Song name
# A B C D E F G H I J K L M N O P Q R S T U V W X Y Z

Pierce The Veil - A Match Into Water tab

Pierce the Veil - A Match Into Water

Combination of Guitars 1 & 2

Key
_______________________
pm . = palm mute
.    = stacatto
\    = slide down
/    = slide up
*    = pinch/artificial harmonic
+    = natural harmonic
~    = vibrato
x    = play strings open w/palm mute(choking the strings)
#\#  = pick scrap down
#/#  = pick scrap up
________________________

No tabs yet huh? okay here we go,

I know some of the timing(amount of time a chord is played) is probably wrong.
Also, it's not 100% perfect, but it's damn close. If you wanna see how it's
played visit my youtube video here: https://www.youtube.com/watch?v=boZ-6wlrP5M

or search " thedanisaur guitar match into water " on youtube
I won't be on this site often so if you have c&c place it on my youtube.

THANKS! and enjoy


Intro:
pm    .    .    .   .   .   .   .   ...
eb| -------------------------------------|
Bb|.-------------------------------------|
Gb| ----12---10---9---7---6---7---9------|
Db| ---- x--- x---x---x---x---x---x------|
Ab|.----10--- 9---7---5---4---5---7------|
Db| --0----0----0---0---0---0---0---000--|

pm   .    .   .   .   .   .
eb|---------------------------- |
Bb|----------------------------.|
Gb|----12---------------------- |
Db|---- x---------------------- |
Ab|----10---8---7---5---5---4--.|
Db|--0----0-9-0-8-0-8-0-8-0-7-- |

pm                              . . .  . . .  . . .  . .
eb|--------------------.--.-------------------------------|
Bb|-----------10------10-10-8-----------------------------|
Gb|--10------- x-(x6)- x- x-x-----------------------------|
Db|-- x-(x16)- 7------ 7- 7-5---3---3--1---1--0---0----1--|
Ab|-- 8---------------------------5------3------1----3----|
Db|-------------------------------------------------------|

eb|-------------.- .--------|
Bb|--8/10------10-10-8--5+--|
Gb|--x/ x-(x6)- x- x-x--5+--| Let harmonic ring while playing verse
Db|--5/ 7------ 7--7-5------|
Ab|-------------------------|
Db|-------------------------|


Verse:
pm    . . . . . . . . . . . . . . . .  . .  . .  . .  . .  
eb| -------------------------------------------------------|
Bb|.-------------------------------------------------------|
Gb| -------------------------------------------------------|
Db| ----3---3---3---3---3---3---3---3----8----8----8----8--|
Ab|.--5---5---5---5---5---5---5---5---10---10---10---10----|
Db| -------------------------------------------------------|

pm   . . . . . . . . . . . . . . . . . . . . . . . .
eb|---------------------------------------------------|
Bb|---------------------------------------------------|
Gb|---------------------------------------------------|
Db|----7---7---7---7---2---2---2---2---2---2---2---2--|
Ab|--8---8---8---8---4---4---4---4---4---4---4---4----|
Db|---------------------------------------------------|

               1st ending                2nd
pm   . . . . . . . . . . . . . . . .
eb|----------------------------------- |-----|
Bb|-----------------------------------.|-----|
Gb|----------------------------------- |-----|
Db|----7---7---7---7---2---2---2---2-- |--7--|
Ab|--8---8---8---8---4---4---4---4----.|--7--|
Db|----------------------------------- |--7--|

eb|-------------------------------------------|
Bb|--------------------------11------10-------|
Gb|--10------12------14------ x-(x8)- x-(x8)--|
Db|-- x-(x8)- x-(x4)- x-(x4)- 8------ 7-------|
Ab|-- 8------10------12-----------------------|
Db|-------------------------------------------|

pm   .
eb|-------------------------------------------------------------|
Bb|-------------------10----10----10----10----10----10----10-9--|
Gb|----------10/12b13----13----13----13----13----13----13-------|
Db|--7----------------------------------------------------------|
Ab|--7-(x16)----------------------------------------------------|
Db|--7----------------------------------------------------------|

eb|----------------------------------------------------------|
Bb|----------------------------------------------------------|
Gb|--12-10-9-7-----10------8-----------------10------8-------|
Db|-- x- x-x-x----- x-(x4)-x-(x4)--xx-7-xx-7- x-(x4)-x-(x4)--|
Ab|--10- 8-7-5----- 7------5-------xx-7-xx-7- 7------5-------|
Db|------------5-7-----------------xx-7-xx-7-----------------|

eb|------------------------------------------------------|
Bb|----------------------------------11------10----------|
Gb|---------------------------------- x-(x8)- x-(x7)-----|
Db|---------------------------------- 8------ 7------8\--|
Ab|--7p0-----7p0-----7p0-----7p0---------------------8\--|
Db|------5h7-----5h7-----5h7-----5h7-----------------8\--|


Chorus:
eb|--------------------------------------------------------------------------|
Bb|--------------------------------------------------------------------------|
Gb|-------------------------------------------------------------------.-.----|
Db|--x-0-x-0-x-0-x-0-x-0-x-0-x-0-x-0-xx-3-------10-8-------5-7-8------8-8-7--|
Ab|--x-0-x-0-x-0-x-0-x-0-x-0-x-0-x-0-xx-3-(x15)-10-8-(x14)-5-7-8-(x7)-8-8-7--|
Db|--x-0-x-0-x-0-x-0-x-0-x-0-x-0-x-0-xx-3-------10-8-------5-7-8------8-8-7--|

pm   .    .    .   .   .   .   .   
eb|----------------------------------------------------------------|
Bb|----------------------------------------------------------------|
Gb|----12---10---9---7---6---7---9\------------ .-.-.-----------.--|
Db|---- x--- x---x---x---x---x---x\--2/3-------10-8-7-8-------5-7--|
Ab|----10--- 9---7---5---4---5---7\--2/3-(x13)-10-8-7-8-(x11)-5-7--|
Db|--0----0----0---0---0---0---0-----2/3-------10-8-7-8-------5-7--|


Verse:                                                             x2
eb| ------------------- | -------------------- | ------------------- |----------|
Bb|.-------------------.|.--------------------.|.-------------------.|--.-.-.---|
Gb| ------------------- | -------------------- | ------------------- |--7-6-6*--|
Db| ------------------- | --.- .-.-.-.---.-.-- | --0-8-0-7-0-------- |----------|
Ab|.--5p0-3h5----------.|.--0-10-0-8-0-7-5-7--.|.------------5-7-8--.|----------|
Db| ----------5p3-2p0-- | -------------------- | ------------------- |----------|

eb| ------------------- | -------------------- | ------------------- |--10-------10-9-------9--|
Bb|.-------------------.|.--------------------.|.-------------------.|-----11---------11-------|
Gb| ------------------- | -------------------- | ------------------- |--------12---------12----|
Db| ------------------- | --.- .-.-.-.---.-.-- | --0-8-0-7-0-------- |-------------------------|
Ab|.--5p0-3h5----------.|.--0-10-0-8-0-7-5-7--.|.------------5-7-8--.|-------------------------|
Db| ----------5p3-2p0-- | -------------------- | ------------------- |-------------------------|

eb|----------------------------------------|
Bb|----------------------------------------|
Gb|--10\------------------12------14-------|
Db|--12\--7-------8-------10------12-------|
Ab|-------7-(x16)-8-(x16)-10-(x8)-12-(x8)--|
Db|-------7-------8-------10------12-------|

Chorus:
pm    .    .    .   .   .   .   .   
eb| -------------------------------------------------------------------------------|
Bb|.-------------------------------------------------------------------------------|
Gb| ----12---10---9---7---6---7---9\----------------------------------------.-.----|
Db| ---- x--- x---x---x---x---x---x\--7------------------8-------5-7-8------8-8-7--|
Ab|.----10--- 9---7---5---4---5---7\--7------------------8-(x14)-5-7-8-(x7)-8-8-7--|
Db| --0----0----0---0---0---0---0-----7--#\#\#\#\#\#\#\#-8-------5-7-8------8-8-7--|

pm   .    .    .   .   .   .   .   
eb|------------------------------------------------------------------------5---------|
Bb|----------------------------------------------------------------------6---6-5-----|
Gb|----12---10---9---7---6---7---9\------------ .-.-.----------------------------7~ -|
Db|---- x--- x---x---x---x---x---x\--2/3-------10-8-7-8-------5-7-8------------------|
Ab|----10--- 9---7---5---4---5---7\--2/3-(x13)-10-8-7-8-(x11)-5-7-8-(x8)-------------|
Db|--0----0----0---0---0---0---0-----2/3-------10-8-7-8-------5-7-8------------------|


Breakdown:                            x3
eb| ----------------------------------- |-----------------------------------------------------|
Bb|.-----------------------------------.|-----------------------------------------------------|
Gb| ----------------------------------- |-----------------------------------------------------|
Db| ----------------------------------- |--------------------------------------------------7--|
Ab|.--.-..-..-.-..-..-.-..-..-.-..-..--.|--.-..-..-.-..-..- .-- .- .- .- .- .-- .- .- .- .-7--|
Db| --8-88-88-8-88-88-7-77-77-6-66-66-- |--8-88-88-8-88-88-10--10-10-10-10-13--13-13-13-13-7--|

pm                                               ................
eb|----------------------------------------------------------------|
Bb|----------------------------------------------------------------|
Gb|--14------12------10-------14-------15--------------------------|
Db|-- x-(x8)- x-(x8)- x-(x16)- x-(x16)- x-(x16)--0000000000000000--|
Ab|--12------10------ 8-------12-------13--------0000000000000000--|
Db|----------------------------------------------0000000000000000--|


Intro:
pm   .    .    .   .   .   .   .   ...
eb|-------------------------------------|
Bb|-------------------------------------|
Gb|----12---10---9---7---6---7---9------|
Db|---- x--- x---x---x---x---x---x------|
Ab|----10--- 9---7---5---4---5---7------|
Db|--0----0----0---0---0---0---0---000--|

pm   .    .   .   .   .   .
eb|---------------------------------|
Bb|---------------------------.-----|
Gb|----12---------------------7-7\--|
Db|---- x---------------------x-x\--|
Ab|----10---8---7---5---5---4-5-5\--|
Db|--0----0-9-0-8-0-8-0-8-0-7-------|

pm    .    .    .   .   .   .   .   .   .     .   .
eb| -------------------------------------------------------|
Bb|.-------------------------------------------------------|
Gb| ----12---10---9---7---6---7---9------------------------|
Db| ---- x--- x---x---x---x---x---x---8---8-8--------------|
Ab|.----10--- 9---7---5---4---5---7---8---8-8---5---5-7*\--|
Db| --0----0----0---0---0---0---0---0-8-0-8-8-0---8--------|


Chorus:
eb|--------------------------------------------------------------------------|
Bb|--------------------------------------------------------------------------|
Gb|-------------------------------------------------------------------.-.----|
Db|--x-0-x-0-x-0-x-0-x-0-x-0-x-0-x-0-xx-3-------10-8-------5-7-8------8-8-7--|
Ab|--x-0-x-0-x-0-x-0-x-0-x-0-x-0-x-0-xx-3-(x15)-10-8-(x14)-5-7-8-(x7)-8-8-7--|
Db|--x-0-x-0-x-0-x-0-x-0-x-0-x-0-x-0-xx-3-------10-8-------5-7-8------8-8-7--|

pm   .    .    .   .   .   .   .   
eb|----------------------------------------------------------------|
Bb|----------------------------------------------------------------|
Gb|----12---10---9---7---6---7---9\------------ .-.-.-----------.--|
Db|---- x--- x---x---x---x---x---x\--2/3-------10-8-7-8-------5-7--|
Ab|----10--- 9---7---5---4---5---7\--2/3-(x13)-10-8-7-8-(x11)-5-7--|
Db|--0----0----0---0---0---0---0-----2/3-------10-8-7-8-------5-7--|


Outro:
pm   ...    ..    ..    ..   ...    ..
eb|------------------------.------------------------------.--|
Bb|------------------------4------------------------------4--|
Gb|------10----10----10----7-----10----10--14-14-14-12-12-7--|
Db|------ x---- x---- x---------- x---- x-- x- x- x- x- x----|
Ab|------ 8---- 8---- 8---------- 8---- 8--12-12-12-10-10----|
Db|--000----00----00----00---000----00-----------------------|

pm   ...    ..    ..    ..   ...    ..
eb|------------------------.----------------------------------|
Bb|------------------------4----------------------------------|
Gb|------10----10----10----7-----10----10--10-10-10-9-9-6--.--|
Db|------ x---- x---- x---------- x---- x-- x- x- x-x-x-x--0--|
Ab|------ 8---- 8---- 8---------- 8---- 8-- 8- 8- 8-7-7-4--0--|
Db|--000----00----00----00---000----00---------------------0--|
Tap to rate this tab
# A B C D E F G H I J K L M N O P Q R S T U V W X Y Z