Song name
# A B C D E F G H I J K L M N O P Q R S T U V W X Y Z

Pierce The Veil - Besitos tab

I couldn't find any tabs for the rhythm part of the song so i made these...

Tuning is  C#,G#,C#,F#,A#,D#




("A violin with no hands plays, symphonies with no words")
C#|----------------------------|
A#|----------------------------|
F#|----------------------------|
C#|-5------4------1-------4----|
G#|-5-X16--5-X16--1--X16--5-X16|
C#|-5------4------1-------4----|


Verse 1
("YOU BETTER NOT GET BACK UP")
C#|--------------------------------------------------------------------------------------------------|
A#|--------------------------------------------------------------------------------------------------|
F#|--------------------------------------------------------------------------------------------------|
C#|--------------------------------------------------------------------------------------------------|
G#|-1--1--1--------------------1--1--1-----------1--0--0--0--------------------0--0--0-----------0---|
C#|----------5--5--5--0--0--0-----------5--0--5--------------4--4--4--0--0--0-----------4--0--4------|

C#|--------------------------------------------------------------------------------------------------|
A#|--------------------------------------------------------------------------------------------------|
F#|--------------------------------------------------------------------------------------------------|
C#|--------------------------------------------------------------------------------------------------|
G#|-------------------1--1--1---------------------1--------------------0--0--0--------------------0--|
C#|-1--1--1--5--5--5------------1--1--1--5--1--5-----0--0--0--4--4--4-----------0--0--0--4--0--4-----|


Chorus

C#|--------------------------------------------------------------------------------------------------|
A#|--------------------------------------------------------------------------------------------------|
F#|-12----12--10-8----8--7--5------------7------------12----12--10-8----8--5------------7------------|
C#|--------------------------------------------------------------------------X8-----------X8---------|
G#|-10----10--8--6----6--5--3------------5------------10----10--8--6----6--3------------5------------|
C#|--------------------------------------------------------------------------------------------------|




Verse 2
("she said PAINT A PICTURE ON ME")
C#|----------------------------|
A#|----------------------------|
F#|----------------------------|
C#|-5------4------1-------4----|
G#|-5-X16--5-X16--1--X16--5-X16|
C#|-5------4------1-------4----|


C#|--------------------------------------------------------------------------------------------------|
A#|--------------------------------------------------------------------------------------------------|
F#|--------------------------------------------------------------------------------------------------|
C#|-8-------5--8-------5--8-------5--8---10---8--7-------4--7-------4--7-------4--7---8---7--8-------|
G#|-----5----------5----------5----------------------5----------5----------5---------------------5---|
C#|--------------------------------------------------------------------------------------------------|

C#|--------------------------------------------------------------|
A#|--------------------------------------------------------------|
F#|--------------------------------------------------------------|
C#|5--8-------5--8-------5--8---10---8--7-------4--7-------4--7--|
G#|-------5----------5----------------------5----------5---------|
C#|--------------------------------------------------------------|


Pre-chorus


C#|----------------------------|
A#|----------------------------|
F#|----------------------------|
C#|----------------------------|
G#|-8-X32--7-X32---------------|
C#|-6------5-------------------|


Chorus

C#|--------------------------------------------------------------------------------------------------|
A#|--------------------------------------------------------------------------------------------------|
F#|-12----12--10-8----8--7--5------------7------------12----12--10-8----8--5------------7------------|
C#|--------------------------------------------------------------------------X8-----------X8---------|
G#|-10----10--8--6----6--5--3------------5------------10----10--8--6----6--3------------5------------|
C#|--------------------------------------------------------------------------------------------------|



Breakdown
(Redů ROSES)
C#|--------------------------------------------------------------------------------------------------|
A#|--------------------------------------------------------------------------------------------------|
F#|--------------------------------------------------------------------------------------------------|
C#|-------1--1------------------------------0--0-------------------------------1--1------------------|
G#|--5-----------4--4------3--3---5--5-------------4--4------3--3---4--4--5----------4--4------3--3--|
C#|--5-----------4--4-------------5--5-------------4--4-------------4--4--5----------4--4------------|

C#|-------------------------------------------|
A#|-------------------------------------------|
F#|-------------------------------------------|
C#|-------------0--0--------------------------|
G#|--4---5-------------4--4------3--3---4--4--|
C#|--4---5-------------4--4-------------4--4--|



Bridge 2 (Legato Slide)
("so say itů I'm in love")
C#|-----------------------------------------|
A#|-----------------------------------------|
F#|-----------------------------------------|
C#|--5\7\8\12\10\8\7\0-----8\7\5\8\7\5\4\0--|
G#|-----------------------------------------|
C#|-----------------------------------------|


fill
(you just got fired, and you don't have a backup plan)
C#|------------------------------|
A#|------------------------------|
F#|------------------------------|
C#|-5------4------1-------4------|
G#|-5-X16--5-X16--1--X16--5-X16--|
C#|-5------4------1-------4------|



"A DIAMOND BULLET AND A GUN MADE OF GOLD, SHE WAS COVERED IN BLOOD LAST SEEN IN SAN FRANCISCO"



Verse repeat
("YEAH")
C#|--------------------------------------------------------------------------------------------------|
A#|--------------------------------------------------------------------------------------------------|
F#|--------------------------------------------------------------------------------------------------|
C#|--------------------------------------------------------------------------------------------------|
G#|-1--1--1--------------------1--1--1-----------1--0--0--0--------------------0--0--0-----------0---|
C#|----------5--5--5--0--0--0-----------5--0--5--------------4--4--4--0--0--0-----------4--0--4------|

C#|--------------------------------------------------------------------------------------------------|
A#|--------------------------------------------------------------------------------------------------|
F#|--------------------------------------------------------------------------------------------------|
C#|--------------------------------------------------------------------------------------------------|
G#|-------------------1--1--1---------------------1--------------------0--0--0--------------------0--|
C#|-1--1--1--5--5--5------------1--1--1--5--1--5-----0--0--0--4--4--4-----------0--0--0--4--0--4-----|



Breakdown

Verse 1
(WE ALL BREAK DOWN)
C#|--------------------------------------------------------------------------------------------------|
A#|--------------------------------------------------------------------------------------------------|
F#|--------------------------------------------------------------------------------------------------|
C#|--------------------------------------------------------------------------------------------------|
G#|-1--------------------------1-----------------1--0--------------------------0-----------------0---|
C#|----------5--------0--------------5--0--5-----------------4--------0-----------------4--0--4------|

C#|--------------------------------------------------------------------------------------------------|
A#|--------------------------------------------------------------------------------------------------|
F#|--------------------------------------------------------------------------------------------------|
C#|--------------------------------------------------------------------------------------------------|
G#|-------------------1---------------------------1--------------------0--------------------------0--|
C#|-1--------5------------------1--------5--1--5-----0--------4-----------------0--------4--0--4-----|


Little bend thingy

C#|----------|
A#|--13b15---|
F#|----------|
C#|----------|
G#|----------|
C#|----------|


Chorus

C#|--------------------------------------------------------------------------------------------------|
A#|--------------------------------------------------------------------------------------------------|
F#|-12----12--10-8----8--7--5------------7------------12----12--10-8----8--5------------7------------|
C#|-1------------------------------------------------------------------------X8-----------X8---------|
G#|-10----10--8--6----6--5--3------------5------------10----10--8--6----6--3------------5------------|
C#|--------------------------------------------------------------------------------------------------|



*last two chords repeated* (listen to song)


Outro

("i hate what it tastes like")
C#|------------------------------------|
A#|-(11--11--11--11--10--10--10--10----|
F#|-(--12--12--12--12--10--10--10--10--|
C#|------------------------------------|
G#|------------------------------------|
C#|------------------------------------|


C#|-------------------------------------------------------------------------|
A#|---11--------8--------7-----------11---------8---------7------------11\--|
F#|---12--X32---8--X32---7--X32------12--X32----8--X32----7--X32-------12\--|
C#|---12--------8--------7-----------12---------8---------7------------12\--|
G#|---10--------6--------5-----------10---------6---------5------------10\--|
C#|-------------------------------------------------------------------------|
Tap to rate this tab
# A B C D E F G H I J K L M N O P Q R S T U V W X Y Z