Song name
# A B C D E F G H I J K L M N O P Q R S T U V W X Y Z

Pierce The Veil - Fast Times At Clairemont High chords

Highlighted       Show chord diagrams
CHORDS USED:

       F#m      D       B       C#      G#      F# 
e|-------x-------x-------x-------x-------x-------x-------|
B|-------x-------x-------x-------x-------x-------x-------|
G|-------x-------7-------4-------6-------9-------7-------|
D|-------4-------7-------4-------6-------8-------6-------|
A|-------4-------5-------2-------4-------6-------4-------|
E|-------2-------x-------x-------x-------x-------x-------|

       F#2     F#3      F       Bm      Am
e|-------x-------x-------x-------x-------x---------------|
B|-------x-------x-------x-------x-------x---------------|
G|-------11------11------10------x-------x---------------|
D|-------11------11------10------9-------7---------------|
A|-------9-------8-------8-------9-------7---------------|
E|-------x-------x-------x-------7-------5---------------|

_________________________________________________________________

INTRO: F#2, F


VERSE 1:

F#m
Tonight we'll be throwing a party.

           D                    B
Under the sunset we started to drink

                F#m
a little faster now

                           D
This celebration, so many faces.

                                        B     C#
I say the words as the moon painted us blue.


CHORUS:

                    G#
I've been saving myself for you.

                    F#
I've been saving myself for you.

                    G#
I waited my whole life for you,

                       F#
'cause I was saving myself for you.


(Now brother bring that beat back)


VERSE 2:

F#m
Now hold on, this is innocent blood,

         D                     B
all the beach boys look like sharks.

F#m
Because without you nothing ever mattered,

D                     B                     (Bm-Am-Bm)
I scream and wave my arms but you don't understand me.

           C#                F#m
Now as I watch them feed on you, it's over.

      C#
If I die, you die too.


CHORUS:

                     G#
Because I'm saving myself for you.

                     F#
I've been saving myself for you.

                     G#  
I waited my whole life for you,

                       F#
'cause I was saving myself for you.


BRIDGE:

                    B
I just wanted one dance with you,

               C#           B
one night under the smoke alarm.


F#m
Every single door in this house is on fire!


F#2      F#3                        F#2
So melodramatic but it turns me on.

                    F#3                     F#2
I close my eyes it feels just like a movie.

                      F#3
I'm convinced that we don't make sense,

         B                     C#
but I'd kill anyone who gets close.


CHORUS:

                    G#
I've been saving myself for you.

                    F#
I've been saving myself for you.

                      G#
The sharpest thing I find for you,

                        F#
'cause I was saving myself for you.

                   G#
I've been saving myself for you.

           F#
I saved myself for you.

                    B
Don't you know I'd die for you?

           G#
I saved myself for you.


End on F#2.
Tap to rate this tab
 
# A B C D E F G H I J K L M N O P Q R S T U V W X Y Z