Song name
# A B C D E F G H I J K L M N O P Q R S T U V W X Y Z

Pierce The Veil - The Boy Who Could Fly tab

-------------------------------------------------------------------------------
                             The Boy Who Could Fly (Solo) - Pierce the Veil
-------------------------------------------------------------------------------
Tabbed by: Keeilay
E-mail: kyle8594@yahoo.com

Tuning: Standard (EADGBE)

e|---------------------------------------------------------------------------|
B|-15b17~-15b17r15-13---13----------------13h15-13-----------------15--------|
G|-------------------16---16-12h14---12-14--------16-14-12-14-14b16--16r14---|
D|---------------------------------------------------------------------------|
A|---------------------------------------------------------------------------|
E|---------------------------------------------------------------------------|

e|---------------------------------------------------------------------------|
B|--------------------------1212-12-15-12----12------------------------------|
G|-------12-14-----12121414---------------15----15-14-12---------------------|
D|--14-13------1414----------------------------------------------------------|
A|---------------------------------------------------------------------------|
E|---------------------------------------------------------------------------|

************************************

| /   slide up
| \   slide down
| h   hammer-on
| p   pull-off
| ~   vibrato
| +   harmonic
| x   Mute note
| b   Bend
| pb  Pre-bend
| br  Bend release
| pbr Pre-bend release
| brb Bend release bend

************************************
Tap to rate this tab
# A B C D E F G H I J K L M N O P Q R S T U V W X Y Z