Song name
# A B C D E F G H I J K L M N O P Q R S T U V W X Y Z

Pierce The Veil - Fast Times At Clairemont High tab

-----------------------------------------------------------------------------
              Fast Times At Clairemont High - Pierce The Veil
-----------------------------------------------------------------------------

Tabbed by: Gunther Fox
E-mail: Gunther.Fox@gmail.com

Tuning: EBGDAE

FUNKY INTRO
E:-----------------------|
B:-----------------------|
G:------------2-1--------|
D:--4-4-----4-----4-2-4--|  (x2)
A:-----------------------|
E:------2-2--------------|

E:-----------------------|
B:-----------------------|
G:------------2-1--------|
D:----------------4-2-4--|  (x2)
A:--5-5-----5------------|
E:------2-2--------------|

PRE-VERSE
E:---------------------------------------------|
B:---------------------------------------------|
G:--11---11-9-9-11-11-14-14-13-13-11-11-10-10--|
D:---x----x-x-x--x--x--x--x--x--x--x--x--x--x--|  (x2)
A:---9----9-7-7--9--9-12-12-11-11--9--9--8--8--|
E:---------------------------------------------|

E:-------------------------------------------|
B:-------------------------------------------|
G:--11---11-9-9-11-11-14-14-13-13-11-11-9-9--|
D:---x----x-x-x--x--x--x--x--x--x--x--x-x-x--|
A:---9----9-7-7--9--9-12-12-11-11--9--9-7-7--|
E:-------------------------------------------|

E:---------------------------------------------|
B:---------------------------------------------|
G:--11-11---11-11-11---11-10-10---10-10-10---11|
D:---x--x----x--x--x----x--x--x----x--x--x----x|
A:---9--9----9--9--9----9--8--8----8--8--8----9|
E:---------------------------------------------|

VERSE
E:-----------------------|
B:--/10-10-9-9-7-7-6-7~--|
G:-----------------------|
D:-----------------------|  (x3)
A:-----------------------|
E:-----------------------|

E:---------------------------9\--|
B:--/10-10-9-9-9h10p9-12+p9-----|
G:-------------------------------|
D:-------------------------------|
A:-------------------------------|
E:-------------------------------|

E:-----------------------|
B:--/10-10-9-9-7-7-6-7~--|
G:-----------------------|
D:-----------------------|  (x4)
A:-----------------------|
E:-----------------------|

PRE-CHORUS
E:------------------------------7--|
B:--6---6---6---6---7---7---9------|
G:----6---6---6---6---6---6---6----|
D:---------------------------------|
A:---------------------------------|
E:---------------------------------|

CHORUS
(Slide the 9 on the B string down to the 7 when switching chords)
E:-----|         E:-----|        
B:--9--|         B:--7--|        
G:--6--|         G:--6--|        
D:--6--|  (x16)  D:--4--|  (x16)
A:-----|         A:-----|
E:-----|         E:-----|

E:-----|         E:-----|        
B:--9--|         B:--7--|        
G:--6--|         G:--6--|        
D:--6--|  (x16)  D:--4--|  (x16)
A:-----|         A:-----|
E:-----|         E:-----|


REPEAT THAT FUNKY INTRO


PRE-CHORUS
E:--------------|
B:--------------|
G:--------------|
D:--------------|
A:--------------|
E:--7---7-5-7\--|

E:---------------------|
B:---------------------|
G:--7-6-7-6-7-6-7-6-7\-|
D:---------------------|
A:---------------------|
E:---------------------|


REPEAT CHORUS
(Let the last chord ring)


POST-CHORUS
E:------|
B:------|
G:--5---|
D:----4-|  (x12)
A:------|
E:------|

BRIDGE
E:-------------------------------|
B:-------------------------------|
G:--/4-2-------2-----------------|
D:-------4p2h4---4p2h4p2---------|  (x11)
A:-----------------------4p2p0---|
E:-----------------------------2-|

E:-------------------------|
B:------------------7---9--|
G:--5---5---5---5---6---6--|
D:----4---4---4---4-4---6--|
A:-------------------------|
E:-------------------------|



REPEAT CHORUS
(Same chords but listen for the differences in strumming)



OUTRO
E:------------------------|
B:--7-7-9-10-9-7-6-9-9-9--|
G:------------------------|
D:------------------------|
A:------------------------|
E:------------------------|
Tap to rate this tab
# A B C D E F G H I J K L M N O P Q R S T U V W X Y Z