Song name
# A B C D E F G H I J K L M N O P Q R S T U V W X Y Z

Pierdavide Carone - Ti Vorrei tab

TI VORREI di Pierdavide Carone

INTRO:  Em D C G   G7 D Am Em

INTRO:
[MIm] [RE]  [DO] [SOL]  [MIm] [RE] [LAm] [MIm]
e-7-----5-----------------7---7-10-8-7-5-7-8----|
B-----8-----7-8-7-5--------------------------5--|
G-------------------7---------------------------|
D-----------------------------------------------|
A-----------------------------------------------|
E-----------------------------------------------|

Em             D        C      G
Tu hai scritto le leggi del paradiso
G7        D          Am7        Em
tu rendi il mondo migliore nel viso
Em          D           C        G
tu che mi aggiungi e mi togli qualcosa
G7        D              Am             Am7       Em D  C G
tu che di me sei ora sei l’acqua, il profumo e la rosa

e-7-----5---------------------------------------|
B-----8-----7-8-7-5-----------------------------|
G-------------------7---------------------------|
D-----------------------------------------------|
A-----------------------------------------------|
E-----------------------------------------------|

Em      D        C        G
Tu mi capisci soltanto se taccio
G7      D           Am7       Em
Tu mi capisci e mi rendi uno straccio
Em           D         C      G
Tu hai fatto tanto in così poco tempo
G7      D         Am7         Em
Piccola ma con la forza di un lampo.


Am7          C    Am7          C           G         D
Se così non fosse, se finanche non esistessi… Ti vorrei
Em                        C              G         D
fare entrare nel mio sogno fatto di favole… Ti vorrei
Em                        C              G         D
condivider col mondo e tenerti solo per me… Ti vorrei
Em                             C               G         D
bella sempre anche se il tempo è fatto di regole… Ti vorrei
      G  D   C
anche se son già.

(ripeti INTRO)
  Em   D     C   G       Em    D    Am   Em
e-7-----5-----------------7---7-10-8-7-5-7-8----|
B-----8-----7-8-7-5--------------------------5--|
G-------------------7---------------------------|
D-----------------------------------------------|
A-----------------------------------------------|
E-----------------------------------------------|

Em             D        C      G
Tu mi trasformi e mi rendi me stessa
G7        D          Am7        Em
Tu che mi porti in un altro contesto
Em          D           C        G
Tu che fai piangere e ridere assieme
G7        D           Am7         Em
Tu che mi offri ogni giorno altre tappe

Am7          C    Am7          C           G            D
Se così non fossi, se finanche tu non esistessi… Ti vorrei
Em                        C              G         RE
fare entrare nel mio sogno fatto di favole… Ti vorrei
Em                        C              G         D
condivider col mondo e tenerti solo per me… Ti vorrei
Em                             C               G         D
bella sempre anche il tempo è fatto di regole… Ti vorrei
      G  D   C
anche se son già.
…

      D    Em                        C              G        
Ti vorrei fare entrare nel mio sogno fatto di favole.
Em                        C              G         D
condivider col mondo e tenerti solo per me… Ti vorrei
Em                             C               G         D
bella sempre anche se il tempo è fatto di regole… Ti vorrei
      G  D   C
anche se son già.

(ripeti INTRO x2)
Tap to rate this tab
# A B C D E F G H I J K L M N O P Q R S T U V W X Y Z