Pierre Attaignant - Basse Danse La Roque tab

-------------------------------------------------------------------------------
		  Basse Danse 'La Roque' - Pierre Attaignant
-------------------------------------------------------------------------------
Tabbed by:Fadley Fauzi
Email:fadleyfauzi@gmail.com

Tuning:EADGBe
Key   :D Major



e|-----------0---|--2------------|--2------------|--3--0---------|--5-3-2-0-2-3--|
B|-----3-2-3-----|-----3---------|-----3---------|---------------|---------------|
G|--2------------|--------2------|--------2------|--0--2---------|---------------|
D|--0------------|--0------------|--0------------|---------------|---------------|
A|---------------|---------------|---------------|---------------|--0------------|
E|---------------|---------------|---------------|---------------|---------------|



e|--2-0-2-3-5-2--|--3-2-0--------|---------------|-----------0---|--2------------|
B|---------------|--------3-2----|--2------------|-----3-2-3-----|-----3---------|
G|---------------|--0---------0--|--2------------|--2------------|--------2------|
D|--0------------|---------------|---------------|--0------------|--0------------|
A|---------------|---------------|----------0----|---------------|---------------|
E|---------------|---------------|---------------|---------------|---------------|



e|--2------------|--3--0---------|--5-3-2-0-2-3--|--2-0-2-3-5-2--|--3--0---------|---------------|
B|-----3---------|---------------|---------------|---------------|---------------|---3-----------|
G|--------2------|--0--2---------|---------------|---------------|--0--2---------|---------------|
D|--0------------|---------------|---------------|--0------------|---------------|---0-----------|
A|---------------|---------------|--0------------|---------------|--------0------|---------------|
E|---------------|---------------|---------------|---------------|---------------|---------------|



e|-------0-2-3---|--5--2---------|--5-3-2-0-3-2--|--3-------3----|--3-2-3-2-0-3--|
B|--3--3---------|--------3------|---------------|---------------|---------------|
G|---------------|---------------|---------------|---------------|---------------|
D|--0------------|--0------------|--0------------|---------------|---------------|
A|---------------|---------------|---------------|---------------|--3------------|
E|---------------|---------------|---------------|--3------------|---------------|



e|--0-2-3-0--2---|--0------------|--0------------|---------------|--5-3-5-7-8-7--|
B|---------------|---------4-----|---------------|--3-2-3-0-7-8--|---------------|
G|---------------|---------------|---------------|---------------|---------------|
D|---------------|---------------|--------2------|--0------------|--0------------|
A|--3--------0---|---------------|-----2---------|---------------|---------------|
E|---------------|--3--2---------|--0------------|---------------|---------------|


e|--5-3-2-0-3-2--|--3------3-----|--3-2-2-0------|----0-2-0-0----|---------------|---------------|
B|---------------|---------------|----------3-2--|--3---------3--|--2-0-2-3-0-2--|--3------------|
G|---------------|--0------------|---------------|---------------|---------------|---------------|
D|--0------------|---------------|---------------|---------------|---------------|--0------------|
A|---------------|---------------|---------------|--2------------|--0------------|---------------|
E|---------------|---------------|--2------------|---------------|---------------|---------------|
Tap to rate this tab
 
# A B C D E F G H I J K L M N O P Q R S T U V W X Y Z