Guitaretab - guitar tabs
Song name
# A B C D E F G H I J K L M N O P Q R S T U V W X Y Z

Pierre Lapointe - Deux Par Deux Rassembls tab

Intro:

e|--------------------------------------------------------------------------|
B|-------------------12-12-14-12-10------------12-12-14-12-10---------10----|
G|------11-11--11-11-----------------11--11-11-----------------11--11-----9-|
D|-9-12---------------------------------------------------------------------|
A|--------------------------------------------------------------------------|
E|--------------------------------------------------------------------------|

e|---------------------------------------------------------------------------|
B|--------------------------------------12-12-14-12-10-----------------------|
G|-9-11-9-11-9--------------11-11-11-11----------------11--------------------|
D|--------------12-11--9-12--------------------------------------------------|
A|---------------------------------------------------------------------------|
E|---------------------------------------------------------------------------|
[ Tab from: http://www.guitaretab.com/p/pierre-lapointe/96003.html ]
e|---------------------------------------------------------------------------|
B|--------12-12-14-12-10--------10-------------------------------------------|
G|-11-11------------------11-11----9--7-9-11-9-7-----------------------------|
D|-----------------------------------------------11--------------------------|
A|---------------------------------------------------------------------------|
E|---------------------------------------------------------------------------|


Verse:

e|--------------------------2----------------------------2-----------|
B|---------12--10--12--10---2------------12--10-12-10----2-----------|
G|---------12--11--12--11---3------------12--11-12-11----3-----------|
D|-9-------12--12--12--12---4------9-----12--12-12-12----4---9-9-9---|
A|-9-------10--12--10--12----------9-----10--12-10-12--------9-9-9---|
E|-7--10-----------------------7---7-5-----------------------7-7-7---|


Chorus:

  play x2
e|--------------------------2----------------|
B|---12------12-12--10-10---2----------------|
G|---12------12-12--11-11---3-------7--------|
D|---12------12-12--12-12---4(x4)---9(x4)----|
A|---10(x4)--10-10--12-12--------------------|
E|-------------------------------------------|
×
Deux Par Deux Rassembls