Song name
# A B C D E F G H I J K L M N O P Q R S T U V W X Y Z

Pierre Rapsat - Je Suis Moi tab

Je suis moi - Pierre Rapsat

Intro 1:
Em en barre VII

Intro 2 et Verse:
------------------------------|------------------------------|
------------------------------|------------------------------|
--------0-------------0-----0-|-------0----------------------|
----0-----2-------------------|---0-----2--------------------|
--2---2-----2-----0-2---0-2---|-2---2-----2-----0-2---0-2----|
--------------0-3-------------|-------------0-3-----0-----0--|

Pre Chorus
Em
Au tierce de la vie
A
J'ai gagne d'etre la
C
Ni Jesus Ni genie
A
Mais c'est moi

Em
c'est mon coeur qui anime
A
Mon regard et mes doigts
C
De la foule anomyne
A
Je suis moi


Chorus en pm:
Em A C A


Riff fin du Chorus:
----12----15-12-|----12----15-12----12---------------|
-12----12-------|-15----15-------15------------------|
----------------|------------------------------------|
----------------|------------------------------------|
----------------|------------------------------------|
----------------|------------------------------------|

Bridge (riff rapide):
----------------------------------------------------|
----------------------------------------------------|
---12-11----14-12-11--------------------------------|
14--------12-----------14-12------------------------|
----------------------------------------------------|
----------------------------------------------------|


Puis:

Verse
Pre Chorus
Chorus en pm
Bridge (repeter plus longtemps la seconde fois)
Refrain (avec tout de suite la guitare aigue)
Et finir sur un beau Em


et en bonus le solo du sorte de Teramine du Bridge:
----------------------------------------------------------|
----------------------------------------------------------|
-14/-14/-12/-12/---9-11-12-14-9---14-16-17-12---17-19-20/-|
----------------------------------------------------------|
----------------------------------------------------------|
----------------------------------------------------------|

J'espere que c'est bon, rendons a cette chanson la place qu'elle merite.
Questions, remarques, amelioration:
beranger80@hotmail.com
Tap to rate this tab
 
# A B C D E F G H I J K L M N O P Q R S T U V W X Y Z