Song name
# A B C D E F G H I J K L M N O P Q R S T U V W X Y Z

Pierre Van Dormael - Undercover tab

Tabbed by:Hagi317
E-mail:hagi317@gmail.com

Tuning:Standard.
h-hammer on
p-pull off

e|---------------------------------------------------------------------------|
B|----------8-9----8-11-9-8---------------------8-9---13-11-11-9-------------|
G|--10-10-------------------10-----------10-10-------------------10----------|
D|---------------------------------------------------------------------------|
A|---------------------------------------------------------------------------|
E|---------------------------------------------------------------------------|

e|------------------------------------------------------------------------------|
B|--14-13-11-9-13-9-11--13-12h13-11-9---------------8-9-----8-9p8-11-9-8--------|
G|------------------------------------10------10-10------10---------------------|
D|------------------------------------------------------------------------------|
A|------------------------------------------------------------------------------|
E|------------------------------------------------------------------------------|

e|-----------------------------------------------------------------------------|
B|----------8-9--8---11-9-8---------------------8-9---13-11-11-9---------------|
G|--10-10-------------------10-----------10-10-------------------10------------|
D|-----------------------------------------------------------------------------|
A|-----------------------------------------------------------------------------|
E|-----------------------------------------------------------------------------|

e|-----------------------------------------------------------------------------|
B|--14-13-11-9-13-9-11--13-12h13-11-9---------------8-9-------11-9-8-----------|
G|------------------------------------10------10-10------------------10--------|
D|-----------------------------------------------------------------------------|
A|-----------------------------------------------------------------------------|
E|-----------------------------------------------------------------------------|
|

e|---------------------------------------------------------------------------|
B|----11h13-11--9-8----------------------------------------------------------|
G|------------------10-------------------------------------------------------|
D|---------------------------------------------------------------------------|
A|---------------------------------------------------------------------------|
E|---------------------------------------------------------------------------|
Tap to rate this tab
 
# A B C D E F G H I J K L M N O P Q R S T U V W X Y Z