Song name
# A B C D E F G H I J K L M N O P Q R S T U V W X Y Z

Pierre Van Dormael - Le Temps Immobile - Mr Nobody tab

                2x
|-----------------|-0---------------|-----------------|-----------------|-----------------|
|-----------------|-1---1---1---1---|-3-----------1-0-|-----------------|-----------------|
|-2---2---2---2---|---0---0---0---0-|-4---4---4-------|-2---2---2---2-0-|-2---2---2---2---|
|---2---2---2---2-|-----------------|---5---5---5-----|---3---3---3-----|---2---2---2---2-|
|-0---------------|-3---------------|-------------3---|-----------------|-0---------------|
|-----------------|-----------------|-3---------------|-1---------------|-----------------|

|-----------------|-0---------------|-----------------|-----------------|-----------------|
|-----------------|-1---1---1---1---|-3-----------1-0-|-----------------|-----------------|
|-2---2---2---2---|---0---0---0---0-|-4---4---4-------|-2---2---2---2-0-|-2---2---2---2---|
|---2---2---2---2-|-----------------|---5---5---5-----|---3---3---3-----|---2---2---2---2-|
|-0---------------|-3---------------|-------------3---|-----------------|-0---------------|
|-----------------|-----------------|-3---------------|-1---------------|-----------------|



|-1---1---1---1---|-0---0---0---0---|-------------0---|-----------------|-----------------|
|---3---3---3---3-|---1---1---1---1-|-3---3---3-----3-|-1---1---1---1-0-|-1---1---1---1---|
|-----------------|-----------------|---4---4---4-----|---2---2---2-----|---2---2---2---2-|
|-0---------------|-----------------|-----------------|-----------------|-----------------|
|-----------------|-3---------------|-----------------|-----------------|-0---------------|
|-----------------|-----------------|-3---------------|-1---------------|-----------------|

|-1---1---1---1---|-0---0---0---0---|-----------------|-----------------|-----------------|
|---3---3---3---3-|---1---1---1---1-|-3---3---3---1-0-|-----------------|-----------------|
|-----------------|-----------------|---4---4---4-----|-2---2---2---2-0-|-2---2---2---2---|
|-0---------------|-----------------|-----------------|---3---3---3-----|---2---2---2---2-|
|-----------------|-3---------------|-----------------|-----------------|-0---------------|
|-----------------|-----------------|-3---------------|-1---------------|-----------------|



|-----------------|-0---------------|-----------------|-----------------|-----------------|
|-----------------|-1---1---1---1---|-3-----------1-0-|-----------------|-----------------|
|-2---2---2---2---|---0---0---0---0-|-4---4---4-------|-2---2---2---2-0-|-2---2---2---2---|
|---2---2---2---2-|-----------------|---5---5---5-----|---3---3---3-----|---2---2---2---2-|
|-0---------------|-3---------------|-------------3---|-----------------|-0---------------|
|-----------------|-----------------|-3---------------|-1---------------|-----------------|

|-----------------|-0---------------|-----------------|-----------------|-----------------|
|-----------------|-1---1---1---1---|-3-----------1-0-|---------------0-|-1---------------|
|-2---2---2---2---|---0---0---0---0-|-4---4---4-------|-2---2---2---2---|-----2---2---2---|
|---2---2---2---2-|-----------------|---5---5---5-----|---3---3---3-----|---2---2---2---2-|
|-0---------------|-3---------------|-------------3---|-----------------|-0---------------|
|-----------------|-----------------|-3---------------|-1---------------|-----------------|


 
|-----------------|-----------------|-----------------|-----------------|-----------------|
|-----------------|-1---1---1---1---|-0---0---0---0---|-----------------|-----------------|
|-2---2---2---2---|---0---0---0---0-|---0---0---0---0-|-2---2---2---2---|-2---2---2---2---|
|---2---2---2---2-|-----------------|-----------------|---3---3---3---3-|---2---2---2---2-|
|-0---------------|-3---------------|-----------------|-----------------|-0---------------|
|-----------------|-----------------|-3---------------|-1---------------|-----------------|

|-1---1---1---1---|-0---0---0---0---|-------------0---|-----------------|-----------------|
|---3---3---3---3-|---1---1---1---1-|-3---3---3-----3-|-1---1---1---1-0-|-1---1---1---1---|
|-----------------|-----------------|---4---4---4-----|---2---2---2-----|---2---2---2---2-|
|-0---------------|-----------------|-----------------|-----------------|-----------------|
|-----------------|-3---------------|-----------------|-----------------|-0---------------|
|-----------------|-----------------|-3---------------|-1---------------|-----------------|
                                                                                        2x
|-----------------|-0---------------|-----------------|-----------------|-----------------|
|-----------------|-1---1---1---1---|-3-----------1-0-|-----------------|-----------------|
|-2---2---2---2---|---0---0---0---0-|-4---4---4-------|-2---2---2---2-0-|-2---2---2---2---|
|---2---2---2---2-|-----------------|---5---5---5-----|---3---3---3-----|---2---2---2---2-|
|-0---------------|-3---------------|-------------3---|-----------------|-0---------------|
|-----------------|-----------------|-3---------------|-1---------------|-----------------|
Tap to rate this tab
 
# A B C D E F G H I J K L M N O P Q R S T U V W X Y Z