Song name
# A B C D E F G H I J K L M N O P Q R S T U V W X Y Z

Pietasters - Five Days Of The Week tab

Five Days of the Week
The Pietasters

Intro/Verse/Outro
|--7-7-7-7-|-x-7-7-7-7-|-10-10-10-10-|-12-12-12-12--|
|--7-7-7-7-|-x-7-7-7-7-|-10-10-10-10-|-12-12-12-12--|
|--8-8-8-8-|-x-8-8-8-8-|-11-11-11-11-|-13-13-13-13--|
|----------|-----------|-------------|--------------|
|----------|-----------|-------------|--------------|
|----------|-----------|-------------|--------------|

Chorus
|--10-10-10-10-|-9--9--9--9--|-8-8-8-8-|-7-7-7-7-7-7-7--|
|--10-10-10-10-|-9--9--9--9--|-8-8-8-7-|-7-7-7-7-7-7-7--|
|--11-11-11-11-|-10-10-10-10-|-7-7-7-7-|-8-8-8-8-8-8-8--|
|--------------|-------------|---------|----------------|
|--------------|-------------|---------|----------------|
|--------------|-------------|---------|----------------|

Bridge
|--10-10-10-10-|-12-12-12-12-|-15-15-15-15-|-14-14-14-14--|
|--10-10-10-10-|-12-12-12-12-|-15-15-15-15-|-14-14-14-14--|
|--11-11-11-11-|-13-13-13-13-|-16-16-16-16-|-15-15-15-15--|
|--------------|-------------|-------------|--------------|
|--------------|-------------|-------------|--------------|
|--------------|-------------|-------------|--------------|
Tap to rate this tab
# A B C D E F G H I J K L M N O P Q R S T U V W X Y Z