Guitaretab - guitar tabs
Song name
# A B C D E F G H I J K L M N O P Q R S T U V W X Y Z

Pietasters - Pietaster tab

Pietaster
The Pietasters

Intro
|--15~(16)~~~\--|
|---------------|
|---------------|
|---------------|
|---------------|
|---------------|

Verse/Chorus
|--2/3-3-3-3--|--7/8-8-8-8--|--10-10-10-10-10-9-8--|--3-3-3-3-2/3--|
|--2/3-3-3-3--|--7/8-8-8-8--|--10-10-10-10-10-9-8--|--3-3-3-3-2/3--|
|--2/3-3-3-3--|--7/8-8-8-8--|--10-10-10-10-10-9-8--|--3-3-3-3-2/3--|
|-------------|-------------|----------------------|---------------|
|-------------|-------------|----------------------|---------------|
|-------------|-------------|----------------------|---------------|

Solo
|--10-10-10-10-8-10-8----|--10---8---10---8/15~--|
|---------------------8--|-----8---8----8--------|
|------------------------|-----------------------|
|------------------------|-----------------------|
|------------------------|-----------------------|
|------------------------|-----------------------|

|--18-15--15-16-18-20--|--20-20-18-20-18-16-18-15~--|
|----------------------|----------------------------|
|----------------------|----------------------------|
|----------------------|----------------------------|
|----------------------|----------------------------|
|----------------------|----------------------------|
[ Tab from: http://www.guitaretab.com/p/pietasters/105232.html ]
|----------------|--------------------|-----------------------------|
|--/15-18-15-13--|--15----15----------|-----------------------------|
|----------------|-----14----14/15b~--|--15-12----------------------|
|----------------|--------------------|---------15-12---------------|
|----------------|--------------------|---------------15-13-15------|
|----------------|--------------------|------------------------15~--|

|------------------------------------|--------------------------------|
|------------------------------------|--------------------------------|
|------------------------------------|------------------12-14-15--15--|
|------------------------------------|-----------12-15----------------|
|--13-13----12/13-13----12/13-13-----|--13-13-15----------------------|
|--------15----------15----------15--|--------------------------------|

|-------------------------|----------------|--18-15-18-15-20\--|
|-------------------------|--15------------|-------------------|
|--15-12----12-15-15-12~--|-----15-15------|-------------------|
|--------15---------------|-----------12/--|-------------------|
|-------------------------|----------------|-------------------|
|-------------------------|----------------|-------------------|


Related for Pietaster tab
Advertisement will be closed in 10 seconds