Song name
# A B C D E F G H I J K L M N O P Q R S T U V W X Y Z

Pietasters - Out All Night tab

Out All Night
The Pietasters

Intro
|--------------------------|---------------------|
|--------------------------|---------------------|
|--------------------------|---------------------|
|--3-----------------------|---------------------|
|----3--------0h1-3-3p1p0--|--------0h1-1-1p0----|
|------1--1h3--------------|--3-3-3-----------3--|


|--------------------------|------------------------|
|--------------------------|------------------------|
|--------------------------|-------------3-3-3-5-5--|
|--3-----------------------|--3-3-3-3-3--3-3-3-5-5--|
|----3--------0h1-3-3p1p0--|--3-3-3-3-3--1-1-1-3-3--|
|------1--1h3--------------|--1-1-1-1-1-------------|

Verse/Chorus
   F            C            G            Bb   C
|--8--8--8--8---8--8--8--8---10-10-10-10--6-6--8--8---|
|--10-10-10-10--8--8--8--8---12-12-12-12--6-6--8--8---|
|--10-10-10-10--9--9--9--9---12-12-12-12--7-7--9--9---|
|--10-10-10-10--10-10-10-10--12-12-12-12--8-8--10-10--|
|--8--8--8--8---10-10-10-10--10-10-10-10--8-8--10-10--|
|---------------8--8--8--8----------------6-6--8--8---|

Bridge
|--------------------------|-----------------------|
|--------------------------|-----------------------|
|--------------------------|-----------------------|
|--3-----------------------|--3--------------------|
|----3--------0h1-3-3p1p0--|----3-----0h1-1-1p0----|
|------1--1h3--------------|------1-3-----------3--|

|--------------------------|------------------------|
|--------------------------|------------------------|
|--------------------------|-------------3-3-3-5-5--|
|--3-----------------------|--3-3-3-3-3--3-3-3-5-5--|
|----3--------0h1-3-3p1p0--|--3-3-3-3-3--1-1-1-3-3--|
|------1--1h3--------------|--1-1-1-1-1-------------|
Tap to rate this tab
# A B C D E F G H I J K L M N O P Q R S T U V W X Y Z