Song name
# A B C D E F G H I J K L M N O P Q R S T U V W X Y Z

Pietasters - Girl Take It Easy tab

Help us improve GuitareTab! Take a short survey!
Girl Take It Easy
The Pietasters

Intro
|------------|-----------|------|
|------------|-----------|------|
|------------|-----------|-7-7--|
|------------|-----------|-7-7--|
|------0-1-2-|-----0-1-2-|-5-5--|
|--3-3-------|-3-3-------|------|

|------------|-----------|------|
|------------|-----------|------|
|------------|-----------|-7-5--|
|------------|-----------|-7-5--|
|------0-1-2-|-----0-1-2-|-5-3--|
|--3-3-------|-3-3-------|------|

Verse
|--3-3-3-3-|-8-8-8-8-|-3-3-3-3-|-10-10-10-10--|
|--3-3-3-3-|-8-8-8-8-|-3-3-3-3-|-10-10-10-10--|
|--4-4-4-4-|-9-9-9-9-|-4-4-4-4-|-11-11-11-11--|
|----------|---------|---------|--------------|
|----------|---------|---------|--------------|
|----------|---------|---------|--------------|

Solo - Play loosely
|------------------------------|----------------------------|
|------------------------------|----------------------------|
|------------------------------|-------------5--5/7--7-6-5--|
|--6-7-8-9--9/7--7/9-5--9--/7--|--6-7-8-9--9----------------|
|------------------------------|----------------------------|
|------------------------------|----------------------------|

Bridge (Girl, Girl, Girl...)
|--3--10--8--|
|--3--10--8--|
|--4--11--9--|
|------------|
|------------|
|------------|
Related for Girl Take It Easy tab