Song name
# A B C D E F G H I J K L M N O P Q R S T U V W X Y Z

Pietasters - Pleasure Bribe tab

Help us improve GuitareTab! Take a short survey!
Pleasure Bribe
The Pietasters

Intro
|--7---7---7--7---7---7--8----8----8---7---7---7--|
|--8---8---8--7---7---7--8----8----8---7---7---7--|
|--7---7---7--8---8---8--9----9----9---8---8---8--|
|--9---9---9--7---7---7--8----8----8---7---7---7--|
|--7-7-7-x-7--9---9---9--10---10---10--9---9---9--|
|-------------7-7-7-x-7--8--8-8--x-8---7-7-7-x-7--|
*Slowly

Verse
|--7--7--8---7--|
|--8--7--8---7--|
|--7--8--9---8--|
|--9--7--8---7--|
|--7--9--10--9--|
|-----7--8---7--|
*Faster Ska Strumming

Chorus
|--7--9---7--7--|
|--8--10--7--8--|
|--7--9---8--7--|
|--9--11--7--9--|
|--7--9---9--7--|
|---------7-----|

Solo
|-------------------------------------------|
|--12-------------------12--12-13-12-10-12--|
|------9--9-11-12-11-9----------------------|
|-------------------------------------------|
|-------------------------------------------|
|-------------------------------------------|

|-------------------------------12~~~~~---|
|--12-------------------12~~~~------------|
|------9--9-11-12-11-9--------------------|
|-----------------------------------------|
|-----------------------------------------|
|-----------------------------------------|

|--12-14-15-14-12-11~~-12~~~~--|
|------------------------------|
|------------------------------|
|------------------------------|
|------------------------------|
|------------------------------|

|--11~~-12~~-14-15-14-12-19~~~~~~--|
|----------------------------------|
|----------------------------------|
|----------------------------------|
|----------------------------------|
|----------------------------------|
Related for Pleasure Bribe tab