Song name
# A B C D E F G H I J K L M N O P Q R S T U V W X Y Z

Pietasters - Little Engine tab

Little Engine
The Pietasters

Intro/Verses
|--7-7-7-7--4-4-4-4--|
|--7-7-7-7--5-5-5-5--|
|--8-8-8-8--4-4-4-4--|
|--------------------|
|--------------------|
*upstroke

Fill 1
|--------------------------|--------------------------|
|--------------------------|--------------------------|
|--------------------------|--------------------------|
|------4-4-1-1-------------|------4-4-1-1------2-2-2--|
|--2-2---------2-2--2-2-2--|--2-2---------2-2---------|
|--------------------------|--------------------------|

Fill 2
|--------------------|--------------------|
|--------14----------|--------16----------|
|--16-16----16-(13)--|--18-18----18-(16)--|
|--------------------|--------------------|
|--------------------|--------------------|
|--------------------|--------------------|
*played lightly in background
Tap to rate this tab
# A B C D E F G H I J K L M N O P Q R S T U V W X Y Z